Cifra Club

Cry Freedom

Dave Matthews Band

Cifrado: Principal (guitarra y guitarra eléctrica)
tono: D
Date: Sun, 16 Jul 2000 17:21:05 -0400
From: "Scott Taylor" 
Subject: m/matthews_dave_band/*


Crash

Intro

---------- --0------
-2-------- --0------
-2-------- --1------
-2-------- --2------
-0-------- --2------
----4---2- --0------

How can I turn away?.....

------------ ----- -------0---
-2---4---5-- -5--- -5--4--0---
-2---4---6-- -4--- -4-----1---
-2---4---7-- -2--- -2--4--2---
------------ -2--- -2--2--2---
-0---0---0-- -0--- -0--0--0---

...human as to human....

------------ ----- -------0---
-2---4---5-- -5--- -5--4--0---
-2---4---6-- -4--- -4-----1---
-2---4---7-- -2--- -2--4--2---
------------ -2--- -2--2--2---
-0---0-0-0-- -0--- -0--0--0---

...better days.
---------- --0------
-2-------- --0------
-2-------- --1------
-2-------- --2------
-0-------- --2------
----4---2- --0------

Verse 1

Figure 1
------- ---- ----- ------
------- ---- ----- ------
------- -7-- ----- ------
-11---- ---- -9--- -11---
--9---- -7-- -7--- -11---
--7---- -5-- -5--- --9---

play figure 1 - 3 times

....and we wave...

Chorus

...our hands, hands and feet.....
[Figure 2                                      ]
--0---- ----------- ----- -------0-- ----------
--0---- --2--4--5-- --5-- -5--4--0-- -2--------
--1---- --2--4--6-- --4-- -4-----1-- -2--------
--2---- --2--4--7-- --2-- -2--4--2-- -2--------
--2---- --0--0--0-- --2-- -2--2--2-- -0--------
--0---- ----------- --0-- -0-----0-- ----4--2--

--0----
--0----
--1----
--2----
--2----
--0----

Verse 2

There was a window......

play Figure 1 - 4 times

......hands in fire, yeah....

Chorus

...hands and feet are all alike....

play Figure 2

--0----
--0----
--1----
--2----
--2----
--0----

Verse 3

In this room stood a little child.....

Figure 1 - 4 times ****except, first 2 bars are tacit

....so wave....

Chorus

...our hands, how can I turn away?....

play Figure 2

--0----
--0----
--1----
--2----
--2----
--0----

Outro

Hands and feet.......

Figure 3
----------- ----- -------0--
--2--4--5-- --5-- -5--4--0--
--2--4--6-- --4-- -4-----1--
--2--4--7-- --2-- -2--4--2--
--0--0--0-- --2-- -2--2--2--
----------- --0-- -0-----0--

play Figure 3 - 7 times

...better days.

---------- --0------
-2-------- --0------
-2-------- --1------
-2-------- --2------
-0-------- --2------
----4---2- --0------


Scott Taylor
School of Music
The Florida State University
http://*
AOL IM: tromba1B
"Eat, drink, and be merry, for tomorrow we shall die." - Epicurus

00:00 / 00:00
Otros videos de esta canción
Repetir
Otros videos de esta canción
Composición de Dave Matthews
58 vistas
    • ½ Tono
    • A
    • Bb
    • B
    • C
    • Db
    • D
    • Eb
    • E
    • F
    • F#
    • G
    • Ab
  • Agregar a la lista

    0 comentarios

    Ver todos los comentarios

    ¿Lograste tocar?

    0 Tocaron 0 Aún no

    ¡Graba un video tocando Cry Freedom y envíanoslo!

    00:00 / 00:00
    OK