Cifra Club

Cry Freedon

Dave Matthews Band

Cifrado: Principal (guitarra y guitarra eléctrica)
tono: E
CRY FREEDON
Intro:(1x)

      A               E
E|----0---------------0----------------------------------
B|----2---------------0----------------------------------
G|----2---------------1----------------------------------
D|----2---------------2----------------------------------
A|----0---------------2----------------------------------
E|--------4--2--------0----------------------------------

"How can i turn away..." "Brother,sister,go dancin"
    A  B  E  Bsus4         Bsus4  B  E  A
E|--5--7--7---7--------------------------------------------
B|--5--7--9---7--------------------------------------------
G|--6--8--9---9--------------------------------------------
D|--7--9--9---9--------------------------------------------
A|--7--9--7---7--------------------------------------------
E|--5--7--7---7--------------------------------------------

Human as to human,the future is no place...
   A  B  E  Bsus4  Bsus4  B  E  A               E
E|------------------------7--7--5---------------0----------------
B|------------------------7--9--5---------------0----------------
G|------------------------8--9--6---------------1----------------
D|------------------------9--9--7---------------2----------------
A|------------------------9--7--7---------------2----------------
E|------------------------7--7--5---4---2-------0----------------

"Cry freedon cry...", "Wave our hands"
  Bsus4  D  Asus2  Csus2         E
E|-2-----2---0------4-------|----0-------------------------------
B|-2-----3---0------4-------|----0-------------------------------
G|-4-----2---2------6-------|----1-------------------------------
D|-4-----0---2------6-------|----2-------------------------------
A|-2---------0------4-------|----2-------------------------------
E|-2----------------4-------|----0-------------------------------

Retorna para "How can i turn away..."
00:00 / 00:00
Otros videos de esta canción
Repetir
Otros videos de esta canción
Compositor no encontrado.
17 vistas
    • ½ Tono
    • A
    • Bb
    • B
    • C
    • Db
    • D
    • Eb
    • E
    • F
    • F#
    • G
    • Ab
  • Agregar a la lista

    0 comentarios

    Ver todos los comentarios

    ¿Lograste tocar?

    0 Tocaron 0 Aún no

    ¡Graba un video tocando Cry Freedon y envíanoslo!

    00:00 / 00:00
    OK