Cifra Club

One Sweet World

Dave Matthews Band

Tab de bajo: Principal
bass player: stephan lessard
tabed by: pete burds

their
first cd (remember 2 things)...i hope you enjoy it!

this is all of the verses:

g/--------------------------------------------------------------------------
d/-----------8---10--10---------------------------------------------------
a/--------8-----------------------------------------------------------------
e/-------------------------10--8--8-----------------------------------------

chorus:
g/---------------------------------------------------------------------------------
d/---------------------------------------------------------------------------------
a/-------------8-8-8-8-8-8-8-8-8-8------------------------------------------
e/----------------------------------------------------------------------------

------

thats it!....just repeat that and you will be fine.....you may want to add a
few things to jazz it up a little in the chorus. 

****************************************
thanks to the hard times we notice the sweet nector
by dave matthews
****************************************
         Pistol _P_E_T_E
00:00 / 00:00
Otros videos de esta canción
Repetir
Otros videos de esta canción
Composición de Dave Matthews / Mildred Hill / Patty Smith Hill
14 vistas

0 comentarios

Ver todos los comentarios

¿Lograste tocar?

1 Tocaron 0 Aún no

¡Graba un video tocando One Sweet World y envíanoslo!

00:00 / 00:00
OK