Cifra Club

Stay

Dave Matthews Band

Cifrado: Principal (guitarra y guitarra eléctrica)
tono: A
Dave
--------------------- ----------------------------
--------------------- ----------------------------
10--10-10----10--8--7 --8-8-8-8-7--7--8-8-8-8~10--
-8---8--8-----8--8--- 5-5-5-5-5-5--6--6-6-6-6~8---
--------------------- ----------------------------
--------------------- ----------------------------
Tim
---6-6--------------- ----------------------------
-6-6-6-6------6--4--3 --4---4-4-3--3--4---4-4~6---
-7-----7------3--3--3 --3---3-3-3--3--5---5-5~7---
-8-----8------------5 --5---5-5-5--3--6---6-6~8---
--------------------- ----------------------------
--------------------- ----------------------------

play Figure 1 - 3 more times

Verse 1

Well, we were walkin.......

play Figure 1 - 7 times, then

Dave
--------------------- ----------------------------
--------------------- ----------------------------
10--10-10----10--8--7 --8-8-8-8-7--7--8-8-8-8-8---
-8---8--8-----8--8--- 5-5-5-5-5-5--6--6-6-6-6-6---
--------------------- ----------------------------
--------------------- ----------------------------
Tim
---6-6--------------- ----------------------------
-6-6-6-6------6--4--3 --4---4-4-3--3--4---4-4-4---
-7-----7------3--3--3 --3---3-3-3--3--5---5-5-5---
-8-----8------------5 --5---5-5-5--3--6---6-6-6---
--------------------- ----------------------------
--------------------- ----------------------------

Chorus

Just wastin' time...............

Figure 2
----- ----------- ----- ----------
----- ----------- ----- ----------
-7--- -7~10--10-- -7--- -4~5------
-8--- --------8-- -8--- -4~5------
-6--- -5~-8---8-- -6--- -2~3------
----- ----------- ----- ----------

                     ....stay, stay, stay.......
----- ----------- ----- ---------- ----------
----- ----------- ----- ---------- ----------
-7--- -7~10--10-- -7--- -10------- -10-------
-8--- --------8-- -8--- -10------- -10-------
-6--- -5~-8---8-- -6--- --8------- --8-------
----- ----------- ----- --8------- --8-------

Figure 1 twice with
Tim (overdub)
--8-8-8-8--6--4--3--1- -3-3--3-3-3-3--4--4----
--9-9-9-9--8--6--4--3- -4-4--4-4-4-4--6--6----
---------------------- -----------------------
---------------------- --------------------5--
---------------------- -----------------------
---------------------- -----------------------

-------------------------- --------------------------
--H---------------6--4--3- --4--4-4-3--3--4--4-4~6---
-6-7---P----------3--3--3- --3--3-3-3--3--5--5-5~7---
-6----8-6---8--6--------5- --5--5-5-5--3--6--6-6~8---
----------8--------------- --------------------------
-------------------------- --------------------------

Verse 2  Well, then later on..........

Figure 1 - 7 times

Dave
--------------------- ----------------------------
--------------------- ----------------------------
10--10-10----10--8--7 --8-8-8-8-7--7--8-8-8-8-8---
-8---8--8-----8--8--- 5-5-5-5-5-5--6--6-6-6-6-6---
--------------------- ----------------------------
--------------------- ----------------------------
Tim
---6-6--------------- ----------------------------
-6-6-6-6------6--4--3 --4---4-4-3--3--4---4-4-4---
-7-----7------3--3--3 --3---3-3-3--3--5---5-5-5---
-8-----8------------5 --5---5-5-5--3--6---6-6-6---
--------------------- ----------------------------
--------------------- ----------------------------

Chorus

Wastin time............

Figure 2


Interlude I

play Figure 1 - 4 times (slight variations)

sax figure
--------------------------------------- -------------
-13------------------------------------ -------------
---13-15--13--------H------------------ -------------
--------15--13-15-11-12---------------- 13-11-13-11--
-----------------------13-11----------- -------------
----------------------------13-11-9~10- -------------

this figure is played 3x's

-13------------------------------------------- -------------
-13-13-15----13---------H--------------------- -------------
----13-15-15-13-13-15-10-13------------------- 15-13-15-13--
----------15----13-15-11-12-13-11------------- 13-11-13-11--
----------------------------13-11-15-15-11~13- -------------
----------------------------------13-11--9~10- -------------

Chorus

We are wastin' time................

1st 5 bars of Figure 2
last 2 bars of Figure 2


Interlude II
(2 guitars)
-------------------------- --------------------------
----11-----11------------- --------11----------------
-------9--------9--------- ----~12----12---12-13-14--
-8---8---8--8------8--9--- 10-------8----------------
-------7--------7--------- ----~10----10~---6--7--8--
-6-------6---------6--7--- -8------------------------

-------------------------- ---------------------11-12-13--
----11-----11------------- -------------11----------------
-------9--------9--------- ---12-10-~12----12-------------
-8---8---8--8------8--9--- 10------------8----------------
-------7--------7--------- ---10--8-~10----10~---6--7--8--
-6-------6---------6--7--- -8-----------------------------

repeat previous 4 bars

-------------------------- ----------------11-12-13--
----11-----11------------- --------11----------------
-------9--------9--------- ----~12----12-------------
-8---8---8--8------8--9--- 10-------8----------------
-------7--------7--------- ----~10----10~---6--7--8--
-6-------6---------6--7--- -8------------------------

Chorus

hey.....love.....

Figure 2

Outro

Figure 1 - 26 times (8-14 with sax figure)

...stay!
--------------
--------------
--------------
-----8--------
-----8--------
-6---6--------
Composición de David J. Matthews / LeRoi Moore / Stefan Lessard
Colaboración y revisión:
  • steingt s
53 vistas
    • ½ Tono
    • A
    • Bb
    • B
    • C
    • Db
    • D
    • Eb
    • E
    • F
    • F#
    • G
    • Ab
  • Agregar a la lista

    0 comentarios

    Ver todos los comentarios

    ¿Lograste tocar?

    0 Tocaron 0 Aún no

    ¡Graba un video tocando Stay y envíanoslo!

    00:00 / 00:00
    Outros vídeos desta música
    Repetir Calidad Automático
    Outros vídeos desta música
    00:00 / 00:00
    Automático
    OK