Cifra Club

True Reflections

Dave Matthews Band

Cifrado: Principal (guitarra y guitarra eléctrica)
Selo Cifra Club: esta cifra foi revisada para atender aos critérios oficiais da nossa Equipe de Qualidade.
tono: D
Verse riff
E|-------------------------|
B|-------------------------|
G|--2---6h7----------------|
D|--2---7------------------|
A|-------------------------| play three times then
E|-----------5-7-----------|


E|---------------------|
B|---------------------|
G|--2----6h7--6h7------|
D|--2----7----7--------|
A|---------------------| then this once
E|----------------5-7--|

listen to intro of sound to get riff down


Chorus

G  D  A  E
3  2  0  0   
0  3  2  0
0  2  2  1
0  0  2  2
2  0  0  2
3  0  0  0
Otros videos de esta canción
    7 exhibiciones
      • ½ Tono
      • A
      • Bb
      • B
      • C
      • Db
      • D
      • Eb
      • E
      • F
      • F#
      • G
      • Ab
    • Agregar a la lista

    Afinação da cifra

    Afinador online

      Ops (: Contenido disponible solo en portugués.
      OK