Cifra Club

When The World Ends

Dave Matthews Band

Tab de bajo: Principal
I noticed that there are no tabs of this song here at the moment so i thought I'd tab
I hope i do an ok job as Stefan Lessard is an AMAZING bassist, anyway here goes;


Verse:
G----------------------|
D----------------------|
A-----------77--3h5-5--|
E-77--3h5-5------------|

do that and add in a couple of improv notes, listen to New York concert for examples. 
do this;

Chorus:
G-----------------|
D-----------------|
A-8888444466668888
E-----------------

Bridge (1:42):
G-------------------|
D---3--5--7*--------|
A-5-----------------|
E-------------------|

add some more improv in the bridge aswell cos it sounds pretty cool

there is a breakdown towards the end of the song so basically just jam along, play
you like which fits

and thats it

bassboy_13
Composición de Dave Matthews / Glen Ballard
23 vistas

0 comentarios

Ver todos los comentarios

¿Lograste tocar?

0 Tocaron 0 Aún no

¡Graba un video tocando When The World Ends y envíanoslo!

00:00 / 00:00
Outros vídeos desta música
Repetir Calidad Automático
Outros vídeos desta música
00:00 / 00:00
Automático
OK