Cifra Club

You & Me

Dave Matthews Band

Cifrado: Versão 2 (guitarra y guitarra eléctrica)
tono: F
E|------------------------------------------|
B|------------------------------------------|
G|-----2-2-2-4-2-4-2-0----2-2-2-4-2-4-2-0---|
D|-----4-4-4-5-4-5-4-0----4-4-4-5-4-5-4-0---|
A|------------------------------------------|
E|--3-------------------0-------------------|

E|------------------------------------------|
B|------------------------------------------|
G|-----2-2-2-4-2-4-2-0----2-2-2-4-2-4-2-0---|
D|-----4-4-4-5-4-5-4-0----4-4-4-5-4-5-4-0---|
A|------------------------------------------|
E|--3-------------------0-------------------|

E|------------------------------------------|
B|------------------------------------------|
G|-----2-2-2-4-2-4-2-0----2-2-2-4-2-4-2-0---|
D|-----4-4-4-5-4-5-4-0----4-4-4-5-4-5-4-0---|
A|------------------------------------------|
E|--3-------------------0-------------------|

E|------------------------------------------|
B|------------------------------------------|
G|-----2-2-2-4-2-4-2-0----2-2-2-4-2-4-2-0---|
D|-----4-4-4-5-4-5-4-0----4-4-4-5-4-5-4-0---|
A|--3-------------------0-------------------|
E|------------------------------------------|

E|------------------------------------------|
B|------------------------------------------|
G|-----2-2-2-4-2-4-2-0----2-2-2-4-2-4-2-0---|
D|-----4-4-4-5-4-5-4-0----4-4-4-5-4-5-4-0---|
A|------------------------------------------|
E|--3-------------------0-------------------|
    C   Am
E|----------|
B|--1---1---|
G|--0---2---|
D|--2---2---|
A|--3-------|
E|----------|

E|---3--0--3--3----|
B|---2--3--3--2----|
G|---3--2--0--3----|
D|---0--0--2--0----|
A|------4----------|
E|-----------------|

E|---3--0--3--3----|
B|---2--3--3--2----|
G|---3--2--0--3----|
D|---0--0--2--0----|
A|------4----------|
E|-----------------|

E|---3--0--3--3----|
B|---2--3--3--2----|
G|---3--2--0--3----|
D|---0--0--2--0----|
A|------4----------|
E|-----------------|

E|---3--0--3--3----|
B|---2--3--3--2----|
G|---3--2--0--3----|
D|---0--0--2--0----|
A|------4----------|
E|-----------------|

E|------------------------------------------|
B|------------------------------------------|
G|-----2-2-2-4-2-4-2-0----2-2-2-4-2-4-2-0---|
D|-----4-4-4-5-4-5-4-0----4-4-4-5-4-5-4-0---|
A|------------------------------------------|
E|--3-------------------0-------------------|

E|------------------------------------------|
B|------------------------------------------|
G|-----2-2-2-4-2-4-2-0----2-2-2-4-2-4-2-0---|
D|-----4-4-4-5-4-5-4-0----4-4-4-5-4-5-4-0---|
A|------------------------------------------|
E|--3-------------------0-------------------|

E|------------------------------------------|
B|------------------------------------------|
G|-----2-2-2-4-2-4-2-0----2-2-2-4-2-4-2-0---|
D|-----4-4-4-5-4-5-4-0----4-4-4-5-4-5-4-0---|
A|--3-------------------0-------------------|
E|------------------------------------------|

E|------------------------------------------|
B|------------------------------------------|
G|-----2-2-2-4-2-4-2-0----2-2-2-4-2-4-2-0---|
D|-----4-4-4-5-4-5-4-0----4-4-4-5-4-5-4-0---|
A|------------------------------------------|
E|--3-------------------0-------------------|
    C   Am
E|----------|
B|--1---1---|
G|--0---2---|
D|--2---2---|
A|--3-------|
E|----------|
    C     Bb A
E|--0--0--1-----|
B|--1--3--3--2--|
G|--0--4--3--2--|
D|--2--4--3--2--|
A|--3--2--1--0--|
E|--------------|
    C     Bb A
E|--0--0--1-----|
B|--1--3--3--2--|
G|--0--4--3--2--|
D|--2--4--3--2--|
A|--3--2--1--0--|
E|--------------|
   F
E|-1--------------------------------------------------|
B|-1--0-----------------------------------------------|
G|-2--4--5-----5-7--5-----5-7--5------5-7--5-----5-7--|
D|-3--5--5--7--5-7--5--7--5-7--5--7---5-7--5-7---5-7--|
A|-3--5-----7----------7----------7----------7--------|
E|-1--3--5----5----------5-----------5---------5------|
   F
E|-1--------------------------------------------------|
B|-1--0-----------------------------------------------|
G|-2--4--5-----5-7--5-----5-7--5------5-7--5-----5-7--|
D|-3--5--5--7--5-7--5--7--5-7--5--7---5-7--5-7---5-7--|
A|-3--5-----7----------7----------7----------7--------|
E|-1--3--5----5----------5-----------5---------5------|

E|---3--0--3--3----|
B|---2--3--3--2----|
G|---3--2--0--3----|
D|---0--0--2--0----|
A|------4----------|
E|-----------------|

E|---3--0--3--3----|
B|---2--3--3--2----|
G|---3--2--0--3----|
D|---0--0--2--0----|
A|------4----------|
E|-----------------|

E|---3--0--3--3----|
B|---2--3--3--2----|
G|---3--2--0--3----|
D|---0--0--2--0----|
A|------4----------|
E|-----------------|

E|---3--0--3--3----|
B|---2--3--3--2----|
G|---3--2--0--3----|
D|---0--0--2--0----|
A|------4----------|
E|-----------------|

E|---3--0--3--3----|
B|---2--3--3--2----|
G|---3--2--0--3----|
D|---0--0--2--0----|
A|------4----------|
E|-----------------|

E|---3--0--3--3----|
B|---2--3--3--2----|
G|---3--2--0--3----|
D|---0--0--2--0----|
A|------4----------|
E|-----------------|

E|------------------------------------------|
B|------------------------------------------|
G|-----2-2-2-4-2-4-2-0----2-2-2-4-2-4-2-0---|
D|-----4-4-4-5-4-5-4-0----4-4-4-5-4-5-4-0---|
A|------------------------------------------|
E|--3-------------------0-------------------|

00:00 / 00:00
Otros videos de esta canción
Repetir
Otros videos de esta canción
Composición de Dave Matthews / David J. Matthews
Colaboración y revisión:
  • Vitor Jay
18 vistas
    • ½ Tono
    • A
    • Bb
    • B
    • C
    • Db
    • D
    • Eb
    • E
    • F
    • F#
    • G
    • Ab
  • Agregar a la lista

    0 comentarios

    Ver todos los comentarios

    ¿Lograste tocar?

    0 Tocaron 0 Aún no

    ¡Graba un video tocando You & Me y envíanoslo!

    00:00 / 00:00
    OK