Cifra Club

Fiel Até o Fim

Davi Sacer

Cifrado: Principal (guitarra y guitarra eléctrica)
tono: D
Intro 4x: Am Em7

       Am     F         Am    F
Quando eu não sei o que me espera
      Am     F       Dm
E tua voz me diz pra ir
      Am  F     Am      F
O meu coração inseguro fica
      Am   G        Dm   C/E   F
Mas decido te ouvir, pois sei

(REFRÃO)
       C9    F          Am         G
Tu és Emaanuuuel, nunca me deixaaaras
             C/E     F       Dm
Sei que tens o  meeelhor pra mim
         C9     F
Eu me entrego a ti
          Am        G
Tu és o grande eu  sou
        C/E    F      Dm    G
Serás fiel aaaaté  o  fim

Passagem Intro 2x: Am Em7

       Am      F        Am    F
Quando eu não sei o que me espera
      Am      F      Dm
E tua voz me diz pra ir
      Am  F     Am      F
O meu coração inseguro fica
      Am     F      Dm  C/E  F  G
Mas decido te ouvir, pois sei

(REFRÃO)
       C9     F             Am     F
Tu és Emaanuuuel, nunca me deixaaaras
             C/E     F       Dm
Sei que tens o  meeelhor pra mim
        C9     F
Eu me entrego a ti
         Am         G
Tu és o grande eu  sou
        C/E     F     Dm    G
Serás fiel aaaaté  o  fim

       F                        Am
Confiarei em  Deus ele é o meu coração
         Em                      Bb    G
O que sustenta os céus e tem em suas mãos
      F                         Am
Confiarei em  Deus ele é o meu coração
         Em                     Bb    G
O que sustenta os céus e tem em suas mãos

Base do solo 2x:Am  G  F G  2X
Solo:                                             x  x  x  x  x  x
E|-----------------------------------15-------------------------------------------------------------------|
B|-13-12-10--------------------16b17----16b17r17-17p15----------17-20------------------------15-16-16b17--|
G|---------12------------------------------------------16-14----------19-19-17-17-15-16-17-18-------------|
D|-----------12-12/14~14-12-14-------------------------------17-------------------------------------------|
A|--------------------------------------------------------------------------------------------------------|
E|--------------------------------------------------------------------------------------------------------|
obs: a base para no meio do solo então a segunda guitarra sola sozinha sem a base

Segunda guitarra
   x  x  x  x  x  x  x x   x  x x x  x x x x
E|---------------------------------------------------------------------------|
B|---------------------------------------------------------------------------|
G|----------12-10-----------------------------13-12-11-10--------------------|
D|-10-12-13-------12-13-12-10-----------9-7-7-------------12-11-9------------|
A|----------------------------13-7-9-10---------------------------11-11/13~--|
E|---------------------------------------------------------------------------|

 (REFRÃO)

       C9    F          Am         G
Tu és Emaanuuuel, nunca me deixaaaras
             C/E     F       Dm
Sei que tens o  meeelhor pra mim
         C9     F
Eu me entrego a ti
          Am        G
Tu és o grande eu  sou
        C/E    F      Dm    G
Serás fiel aaaaté  o  fim

C9        F    Am       G    F
Aleluia, aleluia, aleluuuuuiia
         C9            F            Am     G    F
Cantamos aaaleeeluia, aaaleeeluia, aaaleeeluuuuiia
C9 Am7 Em7   C9 Am7 Em7   C9 Am7 Em7 C9 F
Aaaleeeluia, aaaleeeluia, aaaleeeluuuuiia
         C9             F           Am     G     F
Cantamos aaaleeeluia, aaaleeeluia, aaaleeeluuuuiia
00:00 / 00:00
Otros videos de esta canción
Repetir
Otros videos de esta canción
Composición de Davi Fernandes / Davi Sacer / Diego Viana / Luiz Moreira
Colaboración y revisión:
  • Paulo Fonseca
  • Edson Zanon
  • danilo
82 vistas
    • ½ Tono
    • A
    • Bb
    • B
    • C
    • Db
    • D
    • Eb
    • E
    • F
    • F#
    • G
    • Ab
  • Agregar a la lista

    0 comentarios

    Ver todos los comentarios
    00:00 / 00:00
    OK