Cifra Club

Tua Graça Me Basta

Davi Sacer

Tablatura: Principal (guitarra)
reproducciones 521
Tono: E
[Intro] C#m  B  A  B
        C#m  B  A  B  E

E|--11/12--------------------------------------11/12----------------------------------|
B|-----------12-12/14---------------------------------12-12/14------------------------|
G|--------------------9~----13/14/13-11-13-----------------------9~---14-13-11-9~-----|
D|------------------------------------------------------------------------------------|
A|------------------------------------------------------------------------------------|
E|------------------------------------------------------------------------------------|

E                                A9        B
 Eu não preciso ser reconhecido por ninguém
E                                   A9
 A minha Glória é fazer com que conheçam a Ti
C#m7      B    A9                     E/G#  F#m        B
 E que diminua eu pra que Tu cresças se___nhor mais e mais

E                                   A9
 E como os serafins que encobrem o rosto ante a Ti
E                                    A9         B
 Escondo o rosto para que vejam Tua face em mim
C#m7      B    A9                     E/G#  F#m        B
 E que diminua eu pra que Tu cresças se___nhor mais e mais

          E/G# A9              E/G# F#m
No santo dos  santos a fumaça me esconde
                  C#m7
Só teus olhos me vêem
   B            A9         E/G# F#m
Debaixo de Tuas asas é meu a__brigo
              C#m7
Meu lugar secreto
         B       A9             B                E
Só Tua graça me basta e Tua presença é o meu prazer

[Solo] A  B  C#m  A

E|---7-7/9---------------7-7/9---------------|
B|-9----------7/9-9~---9-----------10-9-7----|
G|---------9~-------------------9~--------9--|
D|-------------------------------------------|
A|-------------------------------------------|
E|-------------------------------------------|

E                                A9
 Eu não preciso ser reconhecido por ninguém
E                                   A9
 A minha Glória é fazer com que conheçam a Ti
C#m7      B    A9                     E/G#  F#m        B
 E que diminua eu pra que Tu cresças se___nhor mais e mais

E                                   A9
 E como os serafins que encobrem o rosto ante a Ti
E                                    A9         B
 Escondo o rosto para que vejam Tua face em mim
C#m7      B    A9                     E/G#  F#m        B
 E que diminua eu pra que Tu cresças se___nhor mais e mais

          E/G# A9              E/G# F#m
No santo dos  santos a fumaça me esconde
                  C#m7
Só teus olhos me vêem
   B            A9         E/G# F#m
Debaixo de Tuas asas é meu abrigo
              C#m7
Meu lugar secreto
         B       A9             B                E
Só Tua graça me basta e Tua presença é o meu prazer

          E/G# A9              E/G# F#m
No santo dos  santos a fumaça me esconde
                  C#m7
Só teus olhos me vêem
   B            A9         E/G# F#m
Debaixo de Tuas asas é meu abrigo
              C#m7
Meu lugar secreto
         B       A9             B                E
Só Tua graça me basta e Tua presença é o meu prazer

[Solo] E  E/G#  A9  E/G#  F#m
       C#m  B  A  E/G#  F#m
       B  C#m  E/G#  A  E  F#m
       B  C#m  E/G#  A  E  F#m  B

E|-----------------------------------------------------|
B|-----------------------------------------------------|
G|-8/9-8-----------------------------------------------|
D|-------9-9/11-11~--11-9------------------9-9h11------|
A|------------------------11-11/12-12~--12--------11~--|
E|-----------------------------------------------------|

E|-11/12-11------------------11-12--16/17-17p16/14-----|
B|----------12-12/14-14~--14---------------------------|
G|-----------------------------------------------------|
D|-----------------------------------------------------|
A|-----------------------------------------------------|
E|-----------------------------------------------------|

E|-11-12-----------------11-12------------------14-16-16/17-17~-|
B|-------12-14-----------------12-14-----------------------------|
G|-------------13-13/14---------------13-14-14-------------------|
D|---------------------------------------------------------------|
A|---------------------------------------------------------------|
E|---------------------------------------------------------------|

E|--16/14-14-14--11h12p11--------------|
B|------------------------12/14--12~---|
G|-------------------------------------|
D|-------------------------------------|
A|-------------------------------------|
E|-------------------------------------|

          E/G# A9              E/G# F#m
No santo dos  santos a fumaça me esconde
                  C#m7
Só teus olhos me vêem
   B            A9         E/G# F#m
Debaixo de Tuas asas é meu abrigo
              C#m7
Meu lugar secreto
         B       A9             B                E
Só Tua graça me basta e Tua presença é o meu prazer

        A             F#m
Tua presença, Tua presença é o meu prazer
        E             B
Tua presença, Tua presença é o meu prazer
        A             F#m
Tua presença, Tua presença é o meu prazer
        E             B
Tua presença, Tua presença é o meu prazer

          E/G# A9              E/G# F#m
No santo dos  santos a fumaça me esconde
                  C#m7
Só teus olhos me vêem
   B            A9         E/G# F#m
Debaixo de Tuas asas é meu abrigo
              C#m7
Meu lugar secreto
         B       A9             B                 C#m
Só Tua graça me basta e Tua presença é o meu prazer
         B       A9             B
Só Tua graça me basta e Tua presença é o meu prazer

[Final] C#m  B  A  B  E

E|---11/12--------------------------------------|
B|-----------12-12/14---------------------------|
G|--------------------9~ -------14-13-11-9~-----|
D|----------------------------------------------|
A|----------------------------------------------|
E|----------------------------------------------|
Acordes para:

    0 comentarios

    mostrar más comentarios

    ¿Conseguiste tocar?

    21 tocaron 6 aún no

    ¡Graba un vídeo tocando Tua Graça Me Basta y envianoslo!

    00:00 / 00:00
    outros vídeos desta música
    repetir qualidade Automático
    Outros vídeos desta música
    00:00 / 00:00
    Automático
    OK