Cifra Club

A Space Oddity

David Bowie

Tablatura: Principal (guitarra)
Tom: G
[Intro] Fmaj7 Em  Fmaj7 Em

C                         Em C                         Em
 Ground control to Major Tom, Ground control to Major Tom
Am         C/G              D7
Take your protein pills and put your helmet on
C                       Em   C                             Em
Ground control to Major Tom, commencing countdown engine's on
Am        C/G            D7
Check ig-nition and may God's love be with you

D7

C                                E                           F
This is ground control to Major Tom, you've really made the grade!
        Fm             C                     F
And the papers want to know whose shirts you wear,
         Fm                C              F
Now it's time to leave the capsule if you dare
C                                E                            F
This is Major Tom to ground control, I'm stepping through the door
        Fm              C             F
And I'm floating in the most peculiar way
        Fm              C          F
And the stars look very different today

     Fmaj7     Em7                  Fmaj7          Em7
For here am I sitting in a tin can, far above the world
Bb               Am               G             F
Planet Earth is blue and there's nothing I can do

Riff ( C  F  G  A )
     ( C  F  G  A )

[Solo]  Fmaj7  Em7  A  C  D7  E


C                                       E                      F
Though I'm passed one hundred thousand miles, I'm feeling very still
      Fm                 C                  F
And I think my spaceship knows which way to go,
        Fm              C             F
Tell my wife I love her very much she knows
G                 E
Ground control to Major Tom
     Am                        C/G   
Your circuit's dead, there's something wrong.
        D
Can you hear me Major Tom
        C
Can you hear me Major Tom
        G
Can you hear me Major Tom Can you

Fmaj7        Em7                     Fmaj7         Em7
Here am I floating round my tin can, far above the moon
Bb               Am              G              F
Planet Earth is blue and there's nothing I can do

Riff ( C  F  G  A )
     ( C  F  G  A )

[Solo]  Fmaj7  Em7  A  C  D7  E

E|-----------------------|--------------------------|
B|-----------------------|--------------------------|
G|---5--7--5--------5--5-|--------------------------|
D|-7----------7-5-7------|----5--7--5---------------|
A|-----------------------|-7-----------7------------|
E|-----------------------|----------------5-(5)-----|

E|---------5----------|-----------------------------|
B|-------5---8-5------|-----------------------------|
G|---5/6---------6----|-----8-10--8/9-----------8/9-|
D|-7---------------7--|--10-----------10/8--10------|
A|--------------------|-----------------------------|
E|--------------------|-----------------------------|

E|--------------------------------------------------|
B|----10--12--10------------------------------------|
G|-12-11--12--11------------10/11-------------------|
D|---------------12/10-12----------2----------------|
A|--------------------------------------------------|
E|-------------------------------------3-3-0--------|
reproducciones 21.422

0 comentarios

mostrar más comentarios

¿Conseguiste tocar?

93 tocaron 3 aún no

¡Graba un vídeo tocando A Space Oddity y envianoslo!

00:00 / 00:00
outros vídeos desta música
repetir qualidade Automático
Outros vídeos desta música
00:00 / 00:00
Automático
OK