Cifra Club

Heroes

David Bowie

Chords: Principal (acoustic and electric guitars)
tone: D
[Intro] D  G  D  G

[Riff 1] 

E|------------------------------------|
B|---/10~~~-7~-12~-7/10~~-------------|
G|------------------------------------|
D|------------------------------------|
A|------------------------------------|
E|------------------------------------|

[Riff 2] 

E|-----------------------------------------------------------|
B|-----------------------------------------------------------|
G|-----------------------------------------------------------|
D|-----------------------------------------------------------|
A|--5-5-----5~-5-5-------5~-5-5--------------2-3-5-----------|
E|------7-5-----------7-5-----------7-5-3~-3-----------------|

[Riff 3] 

E|--------------------------------------------------------------------------------------------------------------------------|
B|----7b8r7p5-5h7-------7b8r7p5-5h7--------7b8r7p5-5h7------------7b8r7p5-5h7---------7b8r7p5-5h7---------7b8r7p5-5h7-------|
G|---------------7~----------------7~-----------------4~---------------------5~------------------4~------------------2~-----|
D|--------------------------------------------------------------------------------------------------------------------------|
A|--------------------------------------------------------------------------------------------------------------------------|
E|--------------------------------------------------------------------------------------------------------------------------|

[Solo] 

E|--------------------------------------------|
B|-5b7r5p3h5p3~~---------3-----3~-3-----------|
G|------------------4~~-----4-----------2~~---|
D|--------------------------------------------|
A|--------------------------------------------|
E|--------------------------------------------|

[Intro]  D  G  D  G

D            G           D               G
I, I will be King,  and you, you will be Queen
         C                       D
Though nothing will drive them away
        Am       Em              D
We can beat them,  just for one day
            C    G              D
We can be heroes, just for one day
                      G
And you, you can be mean
    D                  G
And I, I'll drink all the time
             D                      G
'Cause we're lovers, and that is a fact
          D                       G
Yes we're lovers, and that is that
       C                     D
Though nothing, will keep us together
               Am   Em              D
We could steal time,   just for one day
          C      G              D                     
We can be heroes,  for ever and ever

What d'you say?

( D  G  D  G )

D                      G
I, I wish you could swim
           D                           G
Like the dolphins, like dolphins can swim
         C                               D
Though nothing, nothing will keep us together
            Am        Em              D
We can beat them,       for ever and ever
             C          G                 D
Oh we can be heroes,       just for one day

( D  G  D  G )

 D            G
I, I will be king
       D                G
And you, you will be queen
           C                   D
Though nothing will drive us away
            Am    Em                  D
We can be heroes,      just for one day
          C   G                  D
We can be us,      just for one day

What d'you say?

 D              G
I, I can remember (I remember)
      D            G
Standing, by the wall (by the wall)
             D                G
And the guns, shot above our heads (over our heads)
        D                                G
And we kissed, as though nothing could fall (nothing could fall)
           C                       D
And the shame, was on the other side
               Am      Em                  D
Oh we can beat them,       for ever and ever
                    C      G                D
Then we could be heroes,      just for one day

             G  D
We can be heroes
            G  D
We can be heroes
            G
We can be heroes
              D
Just for one day
             G
We can be heroes
         C                         D
We're nothing, and nothing will help us
              Am  Em                      D
Maybe we're lying, then you better not stay
                  C    G                D
But we could be safer,     just for one day
00:00 / 00:00
Other videos of this song
Repeat
Other videos of this song
Composed by Brian Eno / David Bowie
42.583 views
  • Simplify chords
    • ½ Tone
    • A
    • Bb
    • B
    • C
    • Db
    • D
    • Eb
    • E
    • F
    • F#
    • G
    • Ab
  • Add to list
    00:00 / 00:00
    OK