Cifra Club

Let´s Dance

David Bowie

Chords: Principal (acoustic and electric guitars)
tone: A
[Intro]

      Eb7     Eb7     Eb7     Eb7
E|------------------6-------9-----|
B|--4-------8-------8-------8-----|
G|--6-------6-------6-------6-----|
D|--5-------8-------8-------8-----|
A|--6-------6-------6-------6-----|
E|--------------------------------|

Ah! Ah! Ah! Ah!

      Bb4/7   Bbm6      F#6      Bbm7
E|--11--------9-------11--------9-----|
B|---9--------8-------11--------9-----|
G|--10--------10------11-------10-----|
D|---8--------8-----------------8-----|
A|------------------------------------|
E|------------------------------------|

      Bb4/7
Let's dance!
                          Bbm6
Put on your red shoes and dance the blues!
      F#6
Let's dance!
                                   Bbm7
To the song they're playin' on the radio!

      Bb4/7
Let's sway!
                           Bbm6
While color lights up your face!
      F#6
Let's sway!
                             Bbm7
Sway through the crowd to an empty space!

Ab                   Db       Eb    Db  Eb
If you say run, I'll run with you.
Ab                     Eb7
If you say hide, we'll hide. (oh   oh     oh)
  Ab                Fm
Because my love for you
      Db                Eb7
Would break my heart in two

      Eb7     Eb7     Eb7     Eb7
E|------------------6-------9-----|
B|--4-------8-------8-------8-----|
G|--6-------6-------6-------6-----|
D|--5-------8-------8-------8-----|
A|--6-------6-------6-------6-----|
E|--------------------------------|

If you should fall
Into my arms
And tremble like a flower!

      Bb4/7   Bbm6      F#6      Bbm7
E|--11...-----9...----11...-----9...--|
B|---9...-----8...----11...-----9...--|
G|--10...----10...----11...----10...--|
D|---8...-----8...--------------8...--|
A|------------------------------------|
E|------------------------------------|

VERSE 2:
      Bb4/7
Let's dance!
                          Bbm6
For fear your grace should fall!
      F#6
Let's dance!
                   Bbm7
For fear tonight is all!

      Bb4/7
Let's sway!
                    Bbm6
You could look into my eyes!
      F#6
Let's sway!
                             Bbm7
Under the moonlight, this serious moonlight!

REFRÃO:
Ab                   Db       Eb    Db  Eb
If you say run, I'll run with you.
Ab                     Eb7
If you say hide, we'll hide. (oh   oh     oh)
  Ab                Fm
Because my love for you
      Db                Eb7
Would break my heart in two

      Eb7     Eb7     Eb7     Eb7
E|------------------6...----9...--|
B|--4...----8...----8...----8...--|
G|--6...----6...----6...----6...--|
D|--5...----8...----8...----8...--|
A|--6...----6...----6...----6...--|
E|--------------------------------|

If you should fall
Into my arms
And tremble like a flower!

      Bb4/7   Bbm6      F#6      Bbm7
E|--11...-----9...----11...-----9...--|
B|---9...-----8...----11...-----9...--|
G|--10...----10...----11...----10...--|
D|---8...-----8...--------------8...--|
A|------------------------------------|
E|------------------------------------|

      Bb4/7
 Let's dance!
                          Bbm6
Put on your red shoes and dance the blues!
      F#6
Let's sway!
                             Bbm7
Under the moonlight, this serious moonlight!

Basé até o final: Bb4/7  Bbm6  F#6  Bbm7

E|----------------------------------------------9------------|
B|----------------------------9/11~-------------9--6---------|
G|--8b10r8-6~-----------------------8b10r8p6-------8b10r8p6--|
D|------------8p6--------------------------------------------|
A|----------------h8-7\6p4-----------------------------------|
E|-----------------------------------------------------------|

E|------------------------18\---------------------------------------|
B|--16b18r16-14----14b----18\---11b----16b-15b-14-------------------|
G|--------------15--------18\---------------------15~----8b10r8-6b--|
D|------------------------18\---------------------------------------|
A|------------------------------------------------------------------|
E|------------------------------------------------------------------|

E|----------------------------------------------------------|
B|--16b18r16-14-16b18r16-14| —16b-15b-16b-15b-16b-14-----14b--|
G|-------------------------------------------------15~------|
D|----------------------------------------------------------|
A|----------------------------------------------------------|
E|----------------------------------------------------------|
00:00 / 00:00
Other videos of this song
Repeat
Other videos of this song
Composer not found.
Collaboration and Review:
  • PITU Músico
  • Hans
  • Marcio Araujo
3.442 views
    • ½ Tone
    • A
    • Bb
    • B
    • C
    • Db
    • D
    • Eb
    • E
    • F
    • F#
    • G
    • Ab
  • Add to list
    00:00 / 00:00
    OK