Cifra Club

Aprenda

Soul Love

David Bowie

Tablatura: Principal (guitarra)
tono: G
G
Stone love, she kneels before the grave
  Em                                      C
A brave son who gave his life to save the slogan
                                          G
That hovers between the headstone and her eyes
Bm                 Am          D
For they penetrate her grieving

G
New love, a boy and girl are talking
Em
New words that only they can share in
C
New words, a love so strong it tears their hearts
   G     Bm                   Am              D 
To sleep through the fleeting hours of morning

Am                                E
Love is careless in its choosing, sweeping over cross and baby
F                C
Love descends on those defenseless
D
Idiot love will spark the fusion
C            D                   G                     C
Inspirations have I none just to touch the flaming dove
Cm               G                D
All I have is my love of love and love is not loving

SAX SOLO:  G  Em  C  G  Bm  Am  D

A
Soul love, the priest that tastes the word and
F#m
Told of love and how my God on high is
D                                          A
All love though reaching up my loneliness evolves
C#m                   Bm           E
By the blindness that surrounds him

Bm                                F#
Love is careless in its choosing, sweeping over cross and baby 
G                D
Love descends on those defenseless
E
Idiot love will spark the fusion
D            E                   A                     D
Inspirations have I none just to touch the flaming dove
Dm               A                E
All I have is my love of love and love is not loving 

A
La, la, la, la, la, la, la, la
F#m
La, la, la, la, la, la, la, la
D
La, la, la, la, la, la, la, la, la, la
A   C#m                     Bm  E
La, la, la, la, la, la, la, la, la

SAX SOLO: Here it is transcribed for the guitar as close as I can: 
          G                       Em                       C
        E|------------------------------------------------------------------------
        B|-10-87---10-8-10-12-10-8787-7---88-10-12-15-15-12-17-15--17-15-17-15tr~-
        G|------7--------------------9-9-9--9--------------------16---------------
        D|-------9----------------------------------------------------------------
        A|------------------------------------------------------------------------
        E|------------------------------------------------------------------------

          G   Bm    Am          D
        E|-----------------------12-10--10-
        B|---------------12-10-8------12---
        G|-79--5P4-4-97--------------------
        D|---5----7----9-------------------
        A|---------------------------------
        E|---------------------------------

OUTRO SOLO: 
          A              F#m             D                A C#m          Bm  E
        E|-------------------------------------------------------------------
        B|-------------------------------------------------------------------
        G|-------------------------------------------------10-78-10-87H8P7---
        D|----------------8-10-8-10-12-10-8-10-8-10-12-10-8---------------10-
        A|-8-10-8-10-12-10---------------------------------------------------
        E|-------------------------------------------------------------------

          A              F#m             D                A    C#m Bm  E
        E|-------------------------------------------------------------
        B|---------------------------------------------------11-10--8B|-
        G|-------------------------------------------------10----------
        D|----------------8-10-8-10-12-10-8-10-8-10-12-10-8------------
        A|-8-10-8-10-12-10---------------------------------------------
        E|-------------------------------------------------------------
Composição de David Bowie
Colaboración y revision:
  • Henrique Rocha
2.205 reproducciones
    • ½ Tono
    • A
    • Bb
    • B
    • C
    • Db
    • D
    • Eb
    • E
    • F
    • F#
    • G
    • Ab
  • Adicionar à lista

    0 comentarios

    Ver todos os comentários

    ¿Conseguiste tocar?

    4 Tocaram 0 Ainda não

    Grave um vídeo tocando Soul Love e nos envie!

    00:00 / 00:00
    outros vídeos desta música
    repetir qualidade Automático
    Outros vídeos desta música
    00:00 / 00:00
    Automático
    OK