Cifra Club

Wild Is The Wind

David Bowie

Cifrado: Principal (guitarra y guitarra eléctrica)
tono: G
[Tab - Intro] 

Parte 1 de 3 

E|-7-5-----5-5-5--7-5------5-5-5--7-5------5-5-5------|
B|-5---5---5-5-5--6---6----6-6-6--6---6----6-6-6------|
G|-5-----5-5-5-5--5-----7--5-5-5--5-----5--5-5-5------|
D|----------------------------------------------------|
A|----------------------------------------------------|
E|----------------------------------------------------|

Parte 2 de 3 

E|-7-5h7h5------5-5-5--1-1-1-3-3-3--3-3-3-5-5-5-------|
B|-6-------6----6-6-6--1-1-1-1-1-1--3-3-3-3-3-3-------|
G|-5---------5--5-5-5--2-2-2-2-2-2--4-4-4-4-4-4-------|
D|----------------------------------------------------|
A|----------------------------------------------------|
E|----------------------------------------------------|

Parte 3 de 3 

E|-4-4-4-5-5-5-7-7-7----------------------------------|
B|-5-5-5-5-5-5-5-5-5----------------------------------|
G|-4-4-4-4-4-4-4-4-4----------------------------------|
D|----------------------------------------------------|
A|----------------------------------------------------|
E|----------------------------------------------------|

Am                          Dm
Love me, love me, love me, say you do
Am         Dm       Dm7  G
Let me fly away with you
G              C            
For my love is like the wind
Am        
And wild is the wind
E
Wild is the wind
Am            Dm            
Give me more than one caress
Am       Dm   Dm7       G
Satisfy this hungriness
G                 C
Let the wind blow through your heart
Am                    E       Em
For wild is the wind, wild is the wind

C    Am       F                      Dm      
You touch me, I hear the sound of mandolins
E
You kiss me
Am                 Am7/G
With your kiss my life begins
F                   G  F          E   Am
You're spring to me    all things to me

Don't you know, you're life itself!

Am                    Dm    
Like the leaf clings to the tree
Am         Dm      Dm7      G
Oh, my darling, cling to me
G                     C                Am              
For we're like creatures of the wind, and wild is the wind
E       Em
Wild is the wind

C    Am         F                 Dm      
You touch me, I hear the sound of mandolins
E
You kiss me
A                    Am7/G
With your kiss my life begins
F                    G     F      Am E
You're spring to me,    all things to me

Don't you know, you're life itself!

Am                Dm
Like the leaf clings to the tree
Am          Dm     Dm7      G
Oh, my darling, cling to me
G                 C                     Am          
For we're like creatures in the wind, and wild is the wind
E       Em
Wild is the wind
F 
Wild is the wind
G                F
Wild is the wind
G  E   Am
Wild is the wind

[Final]

[Tab - Final]

Parte 1 de 3

E|-7-5-----5-5-5--7-5------5-5-5--7-5------5-5-5------|
B|-5---5---5-5-5--6---6----6-6-6--6---6----6-6-6------|
G|-5-----5-5-5-5--5-----7--5-5-5--5-----5--5-5-5------|
D|----------------------------------------------------|
A|----------------------------------------------------|
E|----------------------------------------------------|

Parte 2 de 3

E|-7-5h7h5------5-5-5--1-1-1-3-3-3--3-3-3-5-5-5-------|
B|-6-------6----6-6-6--1-1-1-1-1-1--3-3-3-3-3-3-------|
G|-5---------5--5-5-5--2-2-2-2-2-2--4-4-4-4-4-4-------|
D|----------------------------------------------------|
A|----------------------------------------------------|
E|----------------------------------------------------|

Parte 3 de 3

E|-4-4-4-5-5-5-7-7-7----------------------------------|
B|-5-5-5-5-5-5-5-5-5----------------------------------|
G|-4-4-4-4-4-4-4-4-4----------------------------------|
D|----------------------------------------------------|
A|----------------------------------------------------|
E|----------------------------------------------------|
00:00 / 00:00
Otros videos de esta canción
Repetir
Otros videos de esta canción
Composición de Dimitri Tiomkin / Ned Washington
Colaboración y revisión:
  • pimboso batata
451 exhibiciones
    • ½ Tono
    • A
    • Bb
    • B
    • C
    • Db
    • D
    • Eb
    • E
    • F
    • F#
    • G
    • Ab
  • Agregar a la lista
    00:00 / 00:00
    OK