Cifra Club

Smile

David Gilmour

Tablatura: Principal
reproducciones 1.825
Tono: C
Intro: C  Cmaj7/G  C  Cmaj7/G
          C  Cmaj7/G  C     Cmaj7/G
e|-------------------------------------------------------|
B|-3/5--8/13~~--12~~--10~~--10/12\8~~--------------------|
G|-------------------------------------------------------|
D|-------------------------------------------------------|
A|-------------------------------------------------------|
E|-------------------------------------------------------|

 C      Cmaj7/G   C         Cmaj7/G
Would this do to make it all right
 C                 Cmaj7/G  C             Cmaj7/G
While sleep has taken you where I'm out of sight
 Dm           Em
I'll make my getaway
 F          G
Time on my own
 Dm           Em
Search for a better way
    F   Fm  F   G   G11  G  C Cmaj7/G  C Cmaj7/G
To find my way home to your smile......smile.
          C     Cmaj7/G    C          Cmaj7/G
e|-------------------------------------------------------|
B|-3/5--8/13~~--9/12\8~~--8/10~~--10/12--8~~-------------|
G|-------------------------------------------------------|
D|-------------------------------------------------------|
A|-------------------------------------------------------|
E|-------------------------------------------------------|

 C      Cmaj7/G      C        Cmaj7/G
Wasting days and days on this fight
 C     Cmaj7/G     C         Cmaj7/G
Always down, and up half the night
 Dm          Em        F                G
Hopeless to reminisce through the dark hours
 Dm         Em            F Fm F      G  G11
We'll only sacrifice what time will allow us
 G      C  Cmaj7/G   C  Cmaj7/G  C   Cmaj7/G    C  Cmaj7/G
You're sighing......sighing.      uu-hu-hu
    Am    Em7   F    G     Am         Em      Am
e|-2/12~~--10~~--8~~--7~~--7/8~~--8/12\-7~~--0/5-5-5~~--|
B|------------------------------------------------------|
G|------------------------------------------------------|
D|------------------------------------------------------|
A|------------------------------------------------------|
E|------------------------------------------------------|
   Em      F     G           F          G     Am    Em
e|-0/3~~--------------------------------------3/8~~--7~~|
B|--------1/3\1~~--3/5--8--5--10--8--10\-3~~------------|
G|------------------------------------------------------|
D|------------------------------------------------------|
A|------------------------------------------------------|
E|------------------------------------------------------|
   F       G     C          Em7             F         G     C  Cmaj7/G  C  Cmaj7/G
]e|-0/5-5--7\-3~~-------------------------------------------|
B|---------------3/5~~--5/6\5--3--5--8--5--8/10--8--10\-3~~-|
G|----------------------------------------------------------|
D|----------------------------------------------------------|
A|----------------------------------------------------------|
E|----------------------------------------------------------|

C   Cmaj7/G  C               Cmaj7/G
All alone though you're right here
C        Cmaj7/G      C           Cmaj7/G
Now it's time to go from your sad stare
Dm        Em
 Make my getaway
F    Fm  F  G
Time on my own
Dm           Em
Leaving's a better way
    F   Fm  F   G   G11  G  C Cmaj7/G  C Cmaj7/G  C  Cmaj7/G    C  Cmaj7/G  C  Cmaj7/G
To find my way home to your smile......smile.      yu-hu-hu-hu
         C     Cmaj7/G  C         Cmaj7/G        C
e|-5/8-8--7-7--0/3--3/5---------------------------------|
B|-----------------------3\1/3--3/5/8--8/10\8--8/13--12-|
G|------------------------------------------------------|
D|------------------------------------------------------|
A|------------------------------------------------------|
E|------------------------------------------------------|
  Cmaj7/G Dm  Em   F         G     Dm         Em
e|--------8--8/10--8--7\5--5/7\3--3/5--8--8--8/10/12\10-|
B|-10--8------------------------------------------------|
G|------------------------------------------------------|
D|------------------------------------------------------|
A|------------------------------------------------------|
E|------------------------------------------------------|
  F  Fm F    G G11 G      C   G/B           G
e|-8--7--5--5/7--8--10--10/12--10--5/8--8--8/10--7------|
B|------------------------------------------------------|
G|------------------------------------------------------|
D|------------------------------------------------------|
A|------------------------------------------------------|
E|------------------------------------------------------|
    C   G/B     Am7               C/G
E|-/12--10--3--3/8--8--7/8\7\--0--0/3~~~~~~-------------|
B|------------------------------------------------------|
G|------------------------------------------------------|
D|------------------------------------------------------|
A|------------------------------------------------------|
E|------------------------------------------------------|
Acordes para:
    Compositor: David Gilmour / Polly SamsonColaboración y revision:
    • Filipe Castanha

    0 comentarios

      mostrar más comentarios

      ¿Conseguiste tocar?

      4tocaron0aún no

      ¡Graba un vídeo tocando Smile y envianoslo!

      00:00 / 00:00
      outros vídeos desta música
      repetirqualidadeautomática
      Outro vídeos desta música
        00:00 / 00:00
        automática
        OK