Cifra Club

Titanium

David Guetta

Tablatura: Principal
reproducciones 37.553
Tono: D# (con acordes en la forma de C) Capo en 3ª casa
Introdução:

1-
   C9               Em7/B
E|---------0--------------------------------|
B|-----3-------3----3---1---3---1-----------|
G|---0---0---0---0----0---0---0---0---------|
D|------------------------------------------|
A|-3----------------2-----------------------|
E|------------------------------------------|


2-
   A4               A4/E
E|---------0----------------0---------------|
B|-----3-------3--------3-------3-----------|
G|---2---2---2---2----2---2---2---2---------|
D|------------------2-----------------------|
A|-0----------------------------------------|
E|------------------------------------------|


3-
   C9               Em7/B
E|---------0--------------------------------|
B|-----3-------3----3---1---3---1-----------|
G|---0---0---0---0----0---0---0---0---------|
D|------------------------------------------|
A|-3----------------2-----------------------|
E|------------------------------------------|


4-
   A4
E|---------0-----1---0-------0--------------|
B|-----3-------3---------3-------1----------|
G|---2---2---2-----2---2---2---2------------|
D|------------------------------------------|
A|-0----------------------------------------|
E|------------------------------------------|


C9    Em7/B   A4   A4/E
C9    Em7/B   A4


Primeira Parte:

1-
   C9               Em7/B
E|---------0--------------------------------|
B|-----3-------3----3---1---3---1-----------|
G|---0---0---0---0----0---0---0---0---------|
D|------------------------------------------|
A|-3-3-3-3-3-3-3-3--2-2-2-2-2-2-2-2---------|
E|------------------------------------------|

2-
   A4               A4/E
E|---------0----------------0---------------|
B|-----3-------3--------3-------3-----------|
G|---2---2---2---2----2---2---2---2---------|
D|------------------2-2-2-2-2-2-2-2---------|
A|-0-0-0-0-0-0-0-0--------------------------|
E|------------------------------------------|


3-
   C9               Em7
E|---------0--------------------------------|
B|-----3-------3----3---1---3---1-----------|
G|---0---0---0---0----0---0---0---0---------|
D|------------------------------------------|
A|-3-3-3-3-3-3-3-3--------------------------|
E|------------------0-0-0-0-0-0-0-0---------|


4-
   A4
E|---------0-----1---0-------0--------------|
B|-----3-------3---------3-------1----------|
G|---2---2---2-----2---2---2---2------------|
D|------------------------------------------|
A|-0-0-0-0-0-0-0-0-0-0-0-0-0-0-0-0----------|
E|------------------------------------------|


C9              Em7/B
   You shout it out
    A4              A4/E
But I can't hear a word you say
C9             Em7              A4
  I'm talking loud, not saying much
C9          Em7/B
  I'm criticized 
    A4                A4/E
But all your bullets ricochet
C9               Em7            A4
   You shoot me down, but I get up


Refrão:

F                 G             Em
  I'm bulletproof   nothing to lose
       Am7
Fire away, fire away
F           G               Em
  Ricochet,   you take your aim
       Am7
Fire away, fire away
F                   G              Em
  You shoot me down   but I won't fall
        Am7   F
I am tita___nium
                  G              Em
You shoot me down   but I won't fall
        Am7   F
I am tita___nium


F  G  Em  Am7  (2x)


Repete a Primeira Parte:


C9    Em7/B   A4   A4/E
C9    Em7   A4

C9             Em7/B
   Cut me down
          A4                 A4/E
But it's you who'd have further to fall
C9        Em7              A4
   Ghost town and haunted love
C9             Em7/B
   Raise your voice
  A4                    A4/E
Sticks and stones may break my bones
C9                 Em7
  I'm talking loud     
            A4
Not saying much


Repete o Refrão:

F                 G             Em
  I'm bulletproof   nothing to lose
       Am7
Fire away, fire away
F           G               Em
  Ricochet,   you take your aim
       Am7
Fire away, fire away
F                   G              Em
  You shoot me down   but I won't fall
        Am7   F
I am tita___nium
F                   G              Em
  You shoot me down   but I won't fall
        Am7   F
I am tita___nium
G  Em         Am7  F
      I am tita___nium
G  Em         Am7
      I am tita___nium


Segunda Parte:

F             G
  Stone-hard,   machine gun
Em               Am7
   Firing at the ones who run
F             G                  Em  Am7
  Stone-hard,   as bulletproof gla______ss


Refrão Final:

F                   G              Em
  You shoot me down   but I won't fall
        Am7   F
I am tita___nium
F                   G              Em
  You shoot me down   but I won't fall
        Am7   F
I am tita___nium
F                   G              Em
  You shoot me down   but I won't fall
        Am7   F
I am tita___nium
F                   G              Em
  You shoot me down   but I won't fall
        Am7
I am tita___nium

F  G  Em  Am7

F  G

Em         Am7
   I am tita___nium
Acordes para:
    Colaboración y revision:

    0 comentarios

      mostrar más comentarios

      ¿Conseguiste tocar?

      88tocaron3aún no

      ¡Graba un vídeo tocando Titanium y envianoslo!

      00:00 / 00:00
      outros vídeos desta música
      repetirqualidadeautomática
      Outro vídeos desta música
        00:00 / 00:00
        automática
        Capítulos
        • Tocando a Música
        • Dicas iniciais / Equipamentos
        • Acordes da Introdução
        • Tocando Introdução
        • Introdução - Parte 1 de 4
        • Introdução - Parte 2 de 4
        • Introdução - Parte 3 de 4
        • Introdução - Parte 4 de 4
        • Dicas Primeira Parte
        • Tocando Primeira Parte
        • Ensinando Primeira Parte - Parte 1 de 4
        • Ensinando Primeira Parte - Parte 2 de 4
        • Ensinando Primeira Parte - Parte 3 de 4
        • Ensinando Primeira Parte - Parte 4 de 4
        • Dicas Refrão
        • Tocando Refrão
        • Ensinando Refrão
        • Dicas Segunda Parte
        • Tocando Segunda Parte
        • Dicas Finais / Encerramento
        • Ficha Técnica
        OK