Cifra Club

Aprenda

Turn Me On

David Guetta

Tablatura: Principal (guitarra)
tono: Bb
Intro:
E|----------------------------------------------------------|
B|----------------------------------------------------------|
G|--12-12-10------10-12-10---------------------------10-12--|
D|-----------12------------13-12-12----10---13-12-13--------|
A|----------------------------------13----------------------|
E|----------------------------------------------------------|

E|-------------------------------------------------------------|
B|-------------------------------------------------------------|
G|--12-10----10-12-10---------------------------10-12-12-10----|
D|--------12----------13-12--12----10--13-12-13-------------12-|
A|------------------------------13-----------------------------|
E|-------------------------------------------------------------|

E|------------------------------------------------------------|
B|------------------------------------------------------------|
G|--10-12-10--------------------------10-12-12-10----10-12-10-|
D|-----------13-12-12----10--13-12-13-------------12----------|
A|--------------------13--------------------------------------|
E|------------------------------------------------------------|

E|-------------------------------|
B|-------------------------------|
G|---------------------------10--|
D|-13-12-12----10---13-12-13-----|
A|----------13-------------------|
E|-------------------------------|

1ª parte:
E|----------------------------|
B|--/13--11-------------------|
G|----------12--10------------|
D|-----------------13--12-10--|
A|----------------------------|
E|----------------------------|

2ª parte:
E|-------------------------------------------------------------|
B|-------------------------------------------------------------|
G|-------------------------------------------------------------|
D|--5-5-3----3-5-3------------------3-5-5-3----3-5-3-----------|
A|--------5--------6-5-5---3--6-5-6---------5--------6-5-5---3-|
E|-----------------------6---------------------------------6---|

E|---------|
B|---------|
G|---------|
D|-------3-|
A|-6-5-6---|
E|---------|

1ª parte:
E|----------------------------|
B|--/13--11-------------------|
G|----------12--10------------|
D|-----------------13--12-10--|
A|----------------------------|
E|----------------------------|

3ª parte:
E|-------------------18--15h16p15------------------------------|
B|--18b20--18--15-16--------------16---------------------------|
G|-----------------------------------15------------------------|
D|--------------------------------------17p15----15h18/19--17--|
A|--------------------------------------------18---------------|
E|-------------------------------------------------------------|

E|-----------------------------------------------------|
B|-----------------16-15h16p15----15-16-16/18\16-15----|
G|-----------15-17-------------17-------------------15-|
D|--------17-------------------------------------------|
A|--15-18----------------------------------------------|
E|-----------------------------------------------------|

E|-------------------------|
B|--------18---------------|
G|--17b19----19r17p15--17--|
D|-------------------------|
A|-------------------------|
E|-------------------------|
Composição de David Guetta
Colaboración y revision:
  • SAMUEL
350 reproducciones
    • ½ Tono
    • A
    • Bb
    • B
    • C
    • Db
    • D
    • Eb
    • E
    • F
    • F#
    • G
    • Ab
  • Adicionar à lista

    0 comentarios

    Ver todos os comentários

    ¿Conseguiste tocar?

    2 Tocaram 0 Ainda não

    Grave um vídeo tocando Turn Me On e nos envie!

    00:00 / 00:00
    outros vídeos desta música
    repetir qualidade Automático
    Outros vídeos desta música
    00:00 / 00:00
    Automático
    OK