Cifra Club

Essência da Adoração

David Quinlan

Chords: Principal (acoustic and electric guitars)
tone: E
[Intro] F#m  A2  E  B2
        F#m  A2  E  B2
        F#m  A2  E  B2
        F#m  A2  E  B2  A2

[Tab - Solo Intro]

E|------------------------------------------|
B|--------/9~---------/12~--12b14r12--------|
G|/6~-/9~-----/6~-/9~------------------11~\-|
D|------------------------------------------|
A|------------------------------------------|
E|------------------------------------------|

E|------------------------------------------|
B|-------/9~--------/12~--10-9-5/7~-7h9p7\5~|
G|/6~-/9~----/6~-/9~------------------------|
D|------------------------------------------|
A|------------------------------------------|
E|------------------------------------------|

[Primeira Parte] 

E                      E7M(5)
  Quando a música esmorece                
                 F#m7
E o resto desaparece
                        B4  B
Simplesmente a ti me achego
E                E7M(5)        F#m7
  Ansiando oferecer algo de valor
                        B4  B
Pra abençoar o teu coração

E                      E7M(5)
  Quando a música esmorece                
                 F#m7
E o resto desaparece
                        B4  B
Simplesmente a ti me achego
E                E7M(5)        F#m7
  Ansiando oferecer algo de valor
                        B4  B
Pra abençoar o teu coração

[Pré-Refrão] 

F#m                  E           B2
    Mais que uma canção eu te darei
                    F#m
Pois apenas uma canção
              C#m7     B2
Não é o que queres de mim
F#m                E         B2
    Mais profundo busca, Senhor
                       F#m
Do que os olhos podem ver
        E/G#    B4  B
Queres meu coração

[Refrão] 

E                     E7M(5)
  Estou voltando a essência da Adoração
       F#m
E a essência és Tu
     A2        B2
A essência és Tu, Jesus
E                        E7M(5)
  Oh, me perdoa pelo que eu fiz dela
            F#m
Quando a essência és Tu
     A2        B2
A essência és Tu, Jesus

[Solo 1] F#m7  A2  E  B2 
         F#m7  A2  E  B2  A2 

[Tab - Solo 1]

E|------------------------------------------|
B|--------/9~---------/12~--12b14r12--------|
G|/6~-/9~-----/6~-/9~------------------11~\-|
D|------------------------------------------|
A|------------------------------------------|
E|------------------------------------------|

E|------------------------------------------|
B|-------/9~--------/12~--10-9-5/7~-7h9p7\5~|
G|/6~-/9~----/6~-/9~------------------------|
D|------------------------------------------|
A|------------------------------------------|
E|------------------------------------------|

[Segunda Parte] 

E                     E7M(5)
  Rei de imensurável valor
                    F#m              B4  B
Ninguém pode expressar quanto és digno
E                          E7M(5)
  Embora eu seja pobre e fraco
                  F#m
Tudo que tenho é Teu
             B4  B
Cada fôlego meu

[Pré-Refrão] 

A2                  E/G#        B  B4  B
   Mais que uma canção eu te darei
                    F#m
Pois apenas uma canção
              C#m7     B2
Não é o que queres de mim
A2                C#m7      B/D# 
   Mais profundo busca, Senhor
                       F#m
Do que os olhos podem ver
        E/G#    B4  B
Queres meu coração

[Refrão] 

E                     E7M(5)
  Estou voltando a essência da Adoração
       F#m
E a essência és Tu
     A2        B2
A essência és Tu, Jesus
E                        E7M(5)
  Oh, me perdoa pelo que eu fiz dela
            F#m
Quando a essência és Tu
     A2        B2
A essência és Tu, Jesus

E5                     E7M(5)
   Estou voltando a essência da Adoração
       F#m
E a essência és Tu
     A2        B2
A essência és Tu, Jesus
E5                        E7M(5)
   Oh, me perdoa pelo que eu fiz dela
            F#m
Quando a essência és Tu
     A2        B2
A essência és Tu, Jesus

( E  B2  F#m  A2  B2 )
( E  B2  F#m  A2  B2 )

[Solo 2] Am  C  G  D/F# 
         Am  C  G  D 

[Tab - Solo 2]

E|------------------------------------------|
B|---------/12~----------/15~--15b17r15-----|
G|/9~-/12~------/9~-/12~----------------14~\|
D|------------------------------------------|
A|------------------------------------------|
E|------------------------------------------|

E|------------------------------------------|
B|------------------------------------------|
G|-14b16r14p12----12~-----------------------|
D|-------------14---------------------------|
A|------------------------------------------|
E|------------------------------------------|

E|------------------------------------------|
B|---------/12~----------/15~---------------|
G|/9~-/12~------/9~-/12~--------------------|
D|------------------------------------------|
A|------------------------------------------|
E|------------------------------------------|

E|-/12-15-14b15--14-------------------------|
B|------------------15----------------------|
G|---------------------14~------------------|
D|------------------------------------------|
A|------------------------------------------|
E|------------------------------------------|

[Solo 3] F#m  A2  E  B/D#
         F#m  A2  E  B/D#
         F#m  A2  E  B/D#
         F#m  A2  E  B/D#

[Refrão] 

E                     E7M(5)
  Estou voltando a essência da Adoração
       F#m
E a essência és Tu
     A2        B2
A essência és Tu, Jesus
E                        E7M(5)
  Oh, me perdoa pelo que eu fiz dela
            F#m
Quando a essência és Tu
     A2        B2    E  A2  E  A2
A essência és Tu, Jesus

[Final] Bm  F#m  E  Bm  F#m  E
        Bm  F#m  E  Bm  F#m  E
00:00 / 00:00
Other videos of this song
Repeat
Other videos of this song
Composed by Matt Redman
5.400 views
  • Simplify chords
    • ½ Tone
    • A
    • Bb
    • B
    • C
    • Db
    • D
    • Eb
    • E
    • F
    • F#
    • G
    • Ab
  • Add to list
    00:00 / 00:00
    OK