Cifra Club

Libre para adorar

David Quinlan

Cifrado: Principal (guitarra y guitarra eléctrica)
tono: D
Intro: D  F#m7  G  Em
Solo:
    D                F#m
E|-----------7-10-|-7h9----------------------------|
B|------7-10------|-----10-10~---------------------|
G|-s7-9-----------|--------------9b11r9-7---7-9s11-|
D|----------------|-----------------------9--------|
A|----------------|--------------------------------|
E|----------------|--------------------------------|


Introd.: D  F#m7  G  Em

D                               F#m7
Nada  me separara de Tu amor por mí
          G                             Em
Pues fue tu amor por mi que arrebato mi corazón
D                                F#m7
Nada me distanciara de tu amor por mí
                G                           Em
Pues fue tu amor por mí que despertó esta canción, soy libre

D                               F#m7
Nada  me separara de Tu amor por mí
          G                             Em
Pues fue tu amor por mi que arrebato mi corazón
D                                F#m7
Nada me distanciara de tu amor por mí
                G                           Em
Pues fue tu amor por mí que despertó esta canción, soy libre


   G              Bm7
//Libre para adorar
    A
Rasgar mi corazón
             Em
Y demostrarte mi pasión Por Ti,  Soy//


G                Bm7         A                       Em
Santo, tu eres Santo, inmensurable sin igual eres mi canción



                Em
E|-----------|----------------------------|
B|--7s17*----|--17b~--17b~~---------------|
G|-----------|----------------------------|
D|-----------|----------------------------|
A|-----------|----------------------------|
E|-----------|----------------------------|
00:00 / 00:00
Otros videos de esta canción
Repetir
Otros videos de esta canción
Composición de David Quinlan
490 exhibiciones
    • ½ Tono
    • A
    • Bb
    • B
    • C
    • Db
    • D
    • Eb
    • E
    • F
    • F#
    • G
    • Ab
  • Agregar a la lista
    00:00 / 00:00
    OK