Cifra Club

Tudo Que Tem Fôlego

David Quinlan

Cifrado: Principal (guitarra y guitarra eléctrica)
tono: F
[Intro]

E|----------------------------------------------------------------|
B|----------------------------------------------------------------|
G|----------------------------------------------------------------|
D|----------7-7-7---------------------5-5-5-----------------------|
A|--5-5-5-----------------------------------------8-7-------------|
E|--------------------6-6-6---------------------------------------|

E|----------------------------------------------------------------|
B|----------------------------------------------------------------|
G|----------------------------------------------------------------|
D|----------7-7-7------------------------------3------------------|
A|-5-5-5--------------------5-5-5----------3----------------------|
E|-------------------6-6-6----------------------------------------|

 Dm                  Bb
Tudo que tem fôlego louve ao Senhor
 F                   Am
Tudo que tem fôlego louve ao Senhor
 Dm                        Bb
Com Brados de alegria vou, e gritos de louvor
 F                   Am
Tudo que tem fôlego louve ao Senhor

Dm        Bb
ô ô ô ô ô, ô ô ô ô ô
F          Am
ô ô ô ô ô, ô ô ô ô ô

Dm        Bb
ô ô ô ô ô, ô ô ô ô ô
 F                   Am
Tudo que tem fôlego louve ao Senhor

( Dm  Bb  F  Am )

Dm                        Bb
Eu vou louvar meu Senhor, Eu vou louvar meu Senhor
      F                     Am
Com alegria no meu coração, Eu vou louvar meu Senhor

                Dm        Bb
Eu vou dançar pro Senhor, Eu vou dançar pro Senhor
         F                  Am
Com alegria no meu coração, Eu vou dançar meu Senhor

( Dm  Bb  C )
00:00 / 00:00
Otros videos de esta canción
Repetir
Otros videos de esta canción
Compositor no encontrado.
933 exhibiciones
    • ½ Tono
    • A
    • Bb
    • B
    • C
    • Db
    • D
    • Eb
    • E
    • F
    • F#
    • G
    • Ab
  • Agregar a la lista
    00:00 / 00:00
    OK