Cifra Club

Deixa Rolar

DAY

Cifrado: Principal (guitarra y guitarra eléctrica)
tono: G#m (con acordes en la forma de Em) Capotraste en 4ª casa
[Intro] Em G9 C7M

   Em    G9                     C7M                         
E|------------------------------------x-----------------------|
B|----------------------------------0-x--0--------------------|
G|-----0---------0h2-0h2p0----------0-x--0--2/3\2p0-----------|
D|---2---------0-----------0------2---x--2----------2p0-------|
A|---------------------------0--3-----x--3--------------------|
E|-0-----0h2h3------------------------x-------------------3\2-|
 
   Em    G9                     C7M
E|------------------------------------x-----------------------|
B|----------------------------------0-x--0--------------------|
G|-----0---------0h2-0h2p0----------0-x--0--------------------|
D|---2---------0-----------0------2---x--2--------------------|
A|---------------------------0--3-----x--3--------------------|
E|-0-----0h2h3------------------------x-----------------------|


Em          G9          C7M
Se cê quiser pode ficar
                            Em
Não tenha pressa de ir embora
   G9                        C7M
No teu olhar eu via só o meu

Tô só esperando a hora

Em               G9
De você se aproximar, nem que seja devagar
C7M
Deixa rolar, pode ser a noite inteira


Em               G9
Cola o teu corpo no meu
                     C7M
Finge que já percebeu que eu tô na tua

   C7M              G7M/D
Eu me prendi no teu olhar
              Bm              Em
Se não for pedir demais deixa de se preocupar
   C7M              G7M/D
Eu já não sei o que fazer
             Bm                  Em
Pra te convencer que no final vai ser eu e você

[Riff]

   Em    G9                     C7M                         
E|------------------------------------x-----------------------|
B|----------------------------------0-x--0--------------------|
G|-----0---------0h2-0h2p0----------0-x--0--2/3\2p0-----------|
D|---2---------0-----------0------2---x--2----------2p0-------|
A|---------------------------0--3-----x--3--------------------|
E|-0-----0h2h3------------------------x-------------------3\2-|
 
   Em    G9                     C7M
E|------------------------------------x-----------------------|
B|----------------------------------0-x--0--------------------|
G|-----0---------0h2-0h2p0----------0-x--0--------------------|
D|---2---------0-----------0------2---x--2--------------------|
A|---------------------------0--3-----x--3--------------------|
E|-0-----0h2h3------------------------x-----------------------|

Em          G9          C7M
Se cê quiser pode ficar
                            Em
Não tenha pressa de ir embora
   G9                        C7M
No teu olhar eu via só o meu

Tô só esperando a hora

Em               G9
De você se aproximar, nem que seja devagar
C7M
Deixa rolar, pode ser a noite inteira


Em               G9
Cola o teu corpo no meu
                     C7M
Finge que já percebeu que eu tô na tua

   C7M              G7M/D
Eu me prendi no teu olhar
              Bm              Em
Se não for pedir demais deixa de se preocupar
   C7M              G7M/D
Eu já não sei o que fazer
             Bm                  Em
Pra te convencer que no final vai ser eu e você

Am                      Em
E se o tempo não voltar não
                               G5                G7M/D
Então me diz o que tu quer pra não se arrepender depois
Am                      Em
Nesse jogo eu tô na tua mão
                                 G5  G7M/D
Por isso tá fácil de ter meu abraço

  C7M              G7M/D
Eu me prendi no teu olhar
              Bm              Em
Se não for pedir demais deixa de se preocupar
   C7M              G7M/D
Eu já não sei o que fazer
             Bm                  Em
Pra te convencer que no final vai ser eu e você

  C7M              G7M/D
Eu me prendi no teu olhar
              Bm              Em
Se não for pedir demais deixa de se preocupar
   C7M              G7M/D
Eu já não sei o que fazer
             Bm                  Em
Pra te convencer que no final vai ser eu e você

[Riff]

   Em    G9                     C7M                         
E|------------------------------------x-----------------------|
B|----------------------------------0-x--0--------------------|
G|-----0---------0h2-0h2p0----------0-x--0--2/3\2p0-----------|
D|---2---------0-----------0------2---x--2----------2p0-------|
A|---------------------------0--3-----x--3--------------------|
E|-0-----0h2h3------------------------x-------------------3\2-|
 
   Em    G9                     C7M
E|------------------------------------x-----------------------|
B|----------------------------------0-x--0--------------------|
G|-----0---------0h2-0h2p0----------0-x--0--------------------|
D|---2---------0-----------0------2---x--2--------------------|
A|---------------------------0--3-----x--3--------------------|
E|-0-----0h2h3------------------------x-----------------------|
00:00 / 00:00
Otros videos de esta canción
Repetir
Otros videos de esta canción
Composición de Carol Biazin / Dan Valbusa / Day / Marcelinho Ferraz / Pedro Dash
Colaboración y revisión:
  • Ana Carolina
  • Alana Azevedo
  • maria luisa
482 vistas
    • ½ Tono
    • Am
    • Bbm
    • Bm
    • Cm
    • C#m
    • Dm
    • Ebm
    • Em
    • Fm
    • F#m
    • Gm
    • G#m
  • Agregar a la lista

    0 comentarios

    Ver todos los comentarios

    ¿Lograste tocar?

    16 Tocaron 5 Aún no

    ¡Graba un video tocando Deixa Rolar y envíanoslo!

    00:00 / 00:00
    OK