Cifra Club

Aprenda

I Wait

Day6

Tablatura: Principal (guitarra)
Tom: D
[Intro]
E|--17----------17------------17-----------17-----------|
B|-------19-----------17-----------17------------19-----|
G|----------16-----------18-----------18------------16--|
D|------------------------------------------------------|
A|------------------------------------------------------|
E|------------------------------------------------------|


[Verse 1]
 G                       A
aye wonchi anhneunda malhae
                   F#m
kkumdo kkuji malla hae
                    G
mannal ireun eopda hae
 G
Say it
 G                      A
aye gwansimjocha eopda hae
               F#m
charari garago hae
               G
soljikhage malhae
 G
Say it


[Pre-Chorus]
         Bm
neon hangsang (what chu doing)
   F#m
daedap (what chu doing)
    Am       Em
hanbeon hal ttae (what chu doing waewaewae)
     Bm
eonjena (what chu doing)
  F#m                    Am
aemae (what chu doing) hage oh no

       Bm
jeoldaero (what chu doing)
   F#m
naega (what chu doing)
    Am         Em
tteonajin mothage (what chu doing waewaewae)
      Bm                    F#m    Am
nae mami (what chu doing) hetgallige


[Chorus 1]
                        G
nan jigeum gil ilheun chae (I wait)
     A
jejarie (a wae)
           F#m              G
nae soneul jabajugiman gidaryeo
 G
Eh eh
                G
neoege mukkin chae (I wait)
     A
jejarie (a wae)
         F#m                  G
nal pureojudeunji jabadanggyeojwo
 G
Eh eh
 G             N.C.
Waitin' all day


[Verse 2]
 G                     A
aye deo sege jabajwo babe
                   F#m
byeogeul heomureo babe
                 G
deuryeobonaejwo let me in
 G                     A
aye deo sege jabajwo babe
                    F#m
charari deo danggyeojwo
                      G
neoui gyeote issge haejwo
 G
With ya


[Pre-Chorus]
         Bm
neon hangsang (what chu doing)
   F#m
daedap (what chu doing)
    Am       Em
hanbeon hal ttae (what chu doing waewaewae)
     Bm
eonjena (what chu doing)
  F#m                    Am
aemae (what chu doing) hage oh no

       Bm
jeoldaero (what chu doing)
   F#m
naega (what chu doing)
    Am         Em
tteonajin mothage (what chu doing waewaewae)
      Bm                   F#m    Am
nae mami (what chu doing) deo apeuge


[Chorus 2]
                        G
nan jigeum gil ilheun chae (I wait)
     A
jejarie (a wae)
           F#m              G
nae soneul jabajugiman gidaryeo
 G
Eh eh
                G
neoege mukkin chae (I wait)
     A
jejarie (a wae)
         F#m                  G
nal pureojudeunji jabadanggyeojwo
 G
Eh eh
 G
Waitin' all day


[Bridge]
 Bm           F#m
boiji anhneun byeogane
 Am        Em
gadwonohji ma no
    Bm           F#m           Am
nal gatji anheul geomyeon pureojwo
 Bm           F#m
boiji anhneun byeogane
 Am        Em
gadwonohji ma no
    Bm           F#m           Am    N.C.
nal gatji anheul geomyeon pureojwo


[Chorus 3]
                        G
nan jigeum gil ilheun chae (I wait)
     A
jejarie (a wae)
           F#m              G
nae soneul jabajugiman gidaryeo
 G
Eh eh
                G
neoege mukkin chae (I wait)
     A
jejarie (a wae)
         F#m                   G
nal pureojudeunji jabadanggyeojwo
 G
Eh eh
 G
Waitin' all day


[Outro]
| G | A | F#m | G | (x2)

E|----------------------------------------------------------|
B|----------------------------------------------------------|
G|--------------------------2----------------------------2--|
D|--4--4--4--4-4-4---4-2-4--------4--4--4--4--4---4-2-4-----|
A|----------------------------------------------------------|
E|----------------------------------------------------------|
                                                               (x2)
E|-----------------------------------------------|
B|------------------------7----7----5/7-7-7-7-7--|
G|------------------------x----x----x-x-x-x-x-x--|
D|--4--4--4--4--4--4--4---4----4----2/4-4-4-4-4--|
A|-----------------------------------------------|
E|-----------------------------------------------|
Compositor Jae Hyung Park / Ji Sang Hong / Won Pil Kim / Woo min Lee / Young Hyun Kang
Colaboración y revision:
  • Junior ㅤㅤ
97 reproducciones
    • ½ Tom
    • A
    • Bb
    • B
    • C
    • Db
    • D
    • Eb
    • E
    • F
    • F#
    • G
    • Ab
  • Adicionar à lista

    0 comentarios

    Mostrar mais comentários

    ¿Conseguiste tocar?

    1 Tocaron 0 Ainda não

    Grave um vídeo tocando I Wait e mande pra gente!

    00:00 / 00:00
    outros vídeos desta música
    repetir qualidade Automático
    Outros vídeos desta música
    00:00 / 00:00
    Automático

    Cifra Club Pro

    Aproveite o Cifra Club com benefícios exclusivos e sem anúncios
    7 dias grátis
    Cifra Club Pro
    Aproveite o Cifra Club com benefícios exclusivos e sem anúncios
    7 dias grátis
    OK