Cifra Club

Aprenda

What Can I Do

Day6

Tablatura: Principal (guitarra)
Tom: D
[Intro] 

E|------------------|
B|------------------|
G|------------------|
D|-9---------9-----9|
A|---5-7-7/9--5-7/9-|
E|--7-------7-------|

E|---------------------------------------------|
B|---------------------------------------------|
G|---------------------------------------------|
D|------9-------9------------------------------|
A|-5-7/9-7/5-7-5--5-7/9-9-7/5-7-5-5-4-2-0------|
E|7--------------7-----------------------3-6-8-|

Bm            E                Bm
Neoege naneun dodaeche mwon geoni
         E             D
Naega mame itgineun hani
   A       Bm   A       G
Mannal ttaemada dareun neon
    Bb      C       Bm
Aldagado moreugesseo

E|---------------------------------------------|
B|---------------------------------------------|
G|---------------------------------------------|
D|------9-------9------------------------------|
A|-5-7/9-7/5-7-5--5-7/9-9-7/5-7-5-5-4-2-0------|
E|7--------------7-----------------------3-6-8-|

        E                     Bm
Sesange modeun sarameul mannado
          E                       D
Naege naejul shiganeun eopneun geoni
   A     Bm       A      G
Neomuhae neon wae geureoke
     Bb     C   Bm
Andal nage hae

Bm        Bb         A
Nappeuji neon nado alji
        G#m            G
Geureonde daeche wae nan
G
Geureon neoreul jjochadanikka
A
Ooh oh oh ooh ooh

D              Em
Joeun geol mwo eotteokhae
F#m             G
Imi ppajin geol eojjeonya
   F#m
Nal deureotta nwatta
B              Em
Haneun geotto joahaneun
A
Nado nada ya

D              Em
Joeun geol mwo eotteokhae
   F#m       G
Hanshimhaedo eojjeogetnya
  F#m
Nan geunyang neorang
B                Em
Gati itneun ge joa
      A
Nado cham dabi eobtta ya

E|------------------|
B|------------------|
G|------------------|
D|-9---------9-----9|
A|---5-7-7/9--5-7/9-|
E|--7-------7-------|

E|---------------------------------------------|
B|---------------------------------------------|
G|---------------------------------------------|
D|------9-------9------------------------------|
A|-5-7/9-7/5-7-5--5-7/9-9-7/5-7-5-5-4-2-0------|
E|7--------------7-----------------------3-6-8-|

B            E                   B
Gakkeumsshik naege boyeojun misoga
          E              D
Gyesok nunape areungeoryeo
    A       Bm      A        G
Han beonman deo han beonman deo
      Bb              Bm
Bogo shipeo hago isseo

E|---------------------------------------------|
B|---------------------------------------------|
G|---------------------------------------------|
D|------9-------9------------------------------|
A|-5-7/9-7/5-7-5--5-7/9-9-7/5-7-5-5-4-2-0------|
E|7--------------7-----------------------3-6-8-|

             E                        Bm
Gakkeumsshik naege namgyeojun munjaman
         E                 D
Gyesok bomyeonseo utgo isseo
  A    Bm     A     G
Algo isseo andanikka
      Bb     C      Bm
Miryeonhadaneun geol

Bm        Bb         A
Nappeuji neon nado alji
        G#m            G
Geureonde daeche wae nan
G
Geureon neoreul jjochadanikka
A
Ooh oh oh ooh ooh

D              Em
Joeun geol mwo eotteokhae
F#m             G
Imi ppajin geol eojjeonya
   F#m
Nal deureotta nwatta
B              Em
Haneun geotto joahaneun
A
Nado nada ya

D              Em
Joeun geol mwo eotteokhae
   F#m       G
Hanshimhaedo eojjeogetnya
  F#m
Nan geunyang neorang
B                Em
Gati itneun ge joa
      A
Nado cham dabi eobtta ya

Bm        Bb         A
Nappeuji neon nado alji
        G#m            G
Geureonde daeche wae nan
G
Geureon neoreul jjochadanikka
n.c.
Ooh oh oh ooh ooh

D              Em
Joeun geol mwo eotteokhae
F#m             G
Imi ppajin geol eojjeonya
   F#m
Nal deureotta nwatta
B              Em
Haneun geotto joahaneun
A
Nado nada ya

D              Em
Joeun geol mwo eotteokhae
   F#m       G
Hanshimhaedo eojjeogetnya
  F#m
Nan geunyang neorang
B                Em
Gati itneun ge joa
      A
Nado cham dabi eobtta ya

( D  Em  F#m  G )
( F#m  B  Em  A )
( D  Em  F#m  G )
( F#m  B  Em  A )
Compositor collapsedone / Jae / Sungjin / Wonpil / Young K / 홍지상
Colaboración y revision:
  • ana luisa
7 reproducciones
    • ½ Tom
    • A
    • Bb
    • B
    • C
    • Db
    • D
    • Eb
    • E
    • F
    • F#
    • G
    • Ab
  • Adicionar à lista

    0 comentarios

    Mostrar mais comentários

    ¿Conseguiste tocar?

    0 Tocaron 0 Ainda não

    Grave um vídeo tocando What Can I Do e mande pra gente!

    00:00 / 00:00
    outros vídeos desta música
    repetir qualidade Automático
    Outros vídeos desta música
    00:00 / 00:00
    Automático

    Cifra Club Pro

    Aproveite o Cifra Club com benefícios exclusivos e sem anúncios
    7 dias grátis
    Cifra Club Pro
    Aproveite o Cifra Club com benefícios exclusivos e sem anúncios
    7 dias grátis
    OK