Cifra Club

Aprenda

Ain't It Fun

Dead Boys

Tab de bajo: Principal
(intro)

--------------------------------------------2h4---|
--------------------------------------------------|
---------4----------------------------------------|
---2----------------------2-----------------------|
It’s hard to catch the hammer-on part but it’s there and most people miss it. LISTEN CAREFULLY!

(intro/Verse 1)
-------------------------------|
-------------------------------|
---2--2---5-------------2--2---|
-------------0---3--3----------|
Play these 4 times, twice for intro, twice for first verse

------------------------------|
------------------------------|
---2--2----------2-2----------|
----------3--3---------3--3---|
Then,

----------------------------|
----------------------------|
---2---2-1--5----2----5-----|
--------------0----3----0---|

-------------------------------|
-------------------------------|
---2---2-1--5----2----5----2---|
--------------0----3----0------|

------------------|
------------------|
---2-2-2-2-2-2----|
----3-3-3-3-3-3---|

(chorus)
------------------------------------|
------------------------------------|
------------------------------------|
--33333333--55555555--757575757575—-|

(verse 2)
-------------------------------|
-------------------------------|
---2--2---5-------------2--2---|
-------------0---3--3----------|
x2

------------------------------|
------------------------------|
---2--2----------2-2----------|
----------3--3---------3--3---|
Then,

----------------------------|
----------------------------|
---2---2-1--5----2----5-----|
--------------0----3----0---|

-------------------------------|
-------------------------------|
---2---2-1--5----2----5----2---|
--------------0----3----0------|

------------------|
------------------|
---2-2-2-2-2-2----|
----3-3-3-3-3-3---|

(interlude)
----------------------------------------------------|
----------------------------------------------------|
----------------------------------------------------|
--3333333333-5555555555-10*10101010101010-77777777--|
*These are 10th position, NOT open or 1st.

(chorus)
------------------------------------|
------------------------------------|
------------------------------------|
--33333333--55555555--757575757575—-|

(verse 3)
-------------------------------|
-------------------------------|
---2--2---5-------------2--2---|
-------------0---3--3----------|
x2

------------------------------|
------------------------------|
---2--2----------2-2----------|
----------3--3---------3--3---|
Then,

----------------------------|
----------------------------|
---2---2-1--5----2----5-----|
--------------0----3----0---|

-------------------------------|
-------------------------------|
---2---2-1--5----2----5----2---|
--------------0----3----0------|

------------------|
------------------|
---2-2-2-2-2-2----|
----3-3-3-3-3-3---|

(outro/Chorus)
------------------------------------|
------------------------------------|
------------------------------------|
--33333333--55555555--757575757575—-|

Now that is a very simplified version that sounds close and good with the song but here
some fills with some extra notes that will help you modify the sound and add some variety:

(Any Verse)
-----------------------------------|
-----------------------------------|
---2-2--2-1--5-----------0--2--2---|
----------------0--3-3--3----------|
The line this replaces is mostly quarter notes, so this is really just the original with
eighth notes and bridge-notes.

(chorus)
--------------------------------------|
--------------------------------------|
--------------------------------------|
--33333333--55555555--77777775555555--|
This is played as a fill during the Outro/Chorus.
Composição de Cheetah Chrome / Peter Laughner
Colaboración y revision:
  • Aerson Moreira
31 reproducciones

0 comentarios

Ver todos os comentários

¿Conseguiste tocar?

0 Tocaram 0 Ainda não

Grave um vídeo tocando Ain't It Fun e nos envie!

00:00 / 00:00
outros vídeos desta música
repetir qualidade Automático
Outros vídeos desta música
00:00 / 00:00
Automático
OK