Cifra Club

All This And More

Dead Boys

Tab de bajo: Principal
Young Loud And Snotty

intro
-------------------------------------------------------------------|
-------------------------------------------------------------------|
------------------------------------1-/-2 -2-222------1-/-2 -2-222-|
--1-/-2 -2-222----1-/-2 -2-222-------------------------------------|

-----------------------------------------------------|
----------3-3----------------------------------------|
-4--4-----------1-1-1---4-4--------------------------|
---------------------------------2-2-2-2-2-2-2-2-----|

or you can try
-----------------------------------------------|
-----------------------------------------------|
--------7-7----------3-3-----------------------|
--8-8--------5-5-5--------1-1-1-1-1-1-1-1------|

The intro to this some is very reminicent of "Chinese Rocks."  I highly suggest you 
that song out as well if you havent already.
00:00 / 00:00
Otros videos de esta canción
Repetir
Otros videos de esta canción
Composición de Jimmy Zero
30 vistas

0 comentarios

Ver todos los comentarios

¿Lograste tocar?

0 Tocaron 0 Aún no

¡Graba un video tocando All This And More y envíanoslo!

00:00 / 00:00
OK