Cifra Club

Sonic Reducer

Dead Boys

Cifrado: Versão 2 (guitarra y guitarra eléctrica)
tono: C
Of What I Heard From The Song This Is Almost(If Not)Completely Tabbed Correctly... Leave 
On Any Corrections...

E|-------------------------------------------------------|
B|-------------------------------------------------------|
G|-666666------------------------------------------------|
D|-666666666666777777444444------------------------------|
A|-444444666666777777444444------------------------------|
E|-------444444555555222222------------------------------|

E|-------------------------------------------------------|
B|-------------------------------------------------------|
G|-666666------------------------------------------------|
D|-666666666666777777444444------------------------------|
A|-444444666666777777444444------------------------------|
E|-------444444555555222222------------------------------|

E|-------------------------------------------------------|
B|-------------------------------------------------------|
G|-444-666-222-444---------------------------------------|
D|-444-666-222-444---------------------------------------|
A|-222-444-000-222---------------------------------------|
E|-------------------------------------------------------|

E|-------------------------------------------------------|
B|-------------------------------------------------------|
G|-444-666-222-444---------------------------------------|
D|-444-666-222-444---------------------------------------|
A|-222-444-000-222---------------------------------------|
E|-------------------------------------------------------|

E|-------------------------------------------------------|
B|-------------------------------------------------------|
G|-666666------------------------------------------------|
D|-666666666666777777444444------------------------------|
A|-444444666666777777444444------------------------------|
E|-------444444555555222222------------------------------|

E|-------------------------------------------------------|
B|-------------------------------------------------------|
G|-666666------------------------------------------------|
D|-666666666666777777444444------------------------------|
A|-444444666666777777444444------------------------------|
E|-------444444555555222222------------------------------|

E|-------------------------------------------------------|
B|-------------------------------------------------------|
G|-444-666-222-444---------------------------------------|
D|-444-666-222-444---------------------------------------|
A|-222-444-000-222---------------------------------------|
E|-------------------------------------------------------|

E|-------------------------------------------------------|
B|-------------------------------------------------------|
G|-444-666-222-444---------------------------------------|
D|-444-666-222-444---------------------------------------|
A|-222-444-000-222---------------------------------------|
E|-------------------------------------------------------|

E|---------------------------------------|
B|---------------------------------------|
G|--9-9-9-9-9-9-9-6-6-6-6-4--------------|
D|--------------------------6-6----4\2---|
A|---------------------------------------|
E|---------------------------------------|

E|---------------------------------------|
B|---------------------------------------|
G|--9-9-9-9-9-9-9-6-6-6-6-4--------------|
D|--------------------------6-6----4\2---|
A|---------------------------------------|
E|---------------------------------------|

E|----------------------------------------------------------|
B|------------------------------------5-5-5-5-7-7-7-7-9-9-9-|
G|-------------------4-6-6-6-8-8-8-9------------------------|
D|---6-6-6-6-6-6-6-2----------------------------------------|
A|----------------------------------------------------------|
E|----------------------------------------------------------|

E|--9-9-9-9-9-9-9-9-11-11-11-11-11-11-11-11-12-12-12-12-12-12-12-12-|
B|------------------------------------------------------------------|
G|------------------------------------------------------------------|
D|------------------------------------------------------------------|
A|------------------------------------------------------------------|
E|------------------------------------------------------------------|

E|--14-14-14-14-14-14-14-14-----9----9------9-7h9p7------------------------|
B|--14-14-14-14-14-14-14-14--12b--12b--12b----------9-7b-7-7-9-7h9p7--7----|
G|-------------------------------------------------------------------9--6~-|
D|-------------------------------------------------------------------------|
A|-------------------------------------------------------------------------|
E|-------------------------------------------------------------------------|

E|-------------------------------------------------------|
B|-------------------------------------------------------|
G|-666666------------------------------------------------|
D|-666666666666777777444444------------------------------|
A|-444444666666777777444444------------------------------|
E|-------444444555555222222------------------------------|

E|-------------------------------------------------------|
B|-------------------------------------------------------|
G|-666666------------------------------------------------|
D|-666666666666777777444444------------------------------|
A|-444444666666777777444444------------------------------|
E|-------444444555555222222------------------------------|

E|-------------------------------------------------------|
B|-------------------------------------------------------|
G|-444-666-222-444---------------------------------------|
D|-444-666-222-444---------------------------------------|
A|-222-444-000-222---------------------------------------|
E|-------------------------------------------------------|

E|-------------------------------------------------------|
B|-------------------------------------------------------|
G|-444-666-222-444---------------------------------------|
D|-444-666-222-444---------------------------------------|
A|-222-444-000-222---------------------------------------|
E|-------------------------------------------------------|

E|-------------------------------------------------------|
B|-------------------------------------------------------|
G|-666666------------------------------------------------|
D|-666666666666777777444444------------------------------|
A|-444444666666777777444444------------------------------|
E|-------444444555555222222------------------------------|
Composición de Cheetah Chrome / David Thomas / Jeff Magnum / Jimmy Zero / Johnny Blitz / Stiv Bators
1 vistas
    • ½ Tono
    • A
    • Bb
    • B
    • C
    • Db
    • D
    • Eb
    • E
    • F
    • F#
    • G
    • Ab
  • Agregar a la lista

    0 comentarios

    Ver todos los comentarios

    ¿Lograste tocar?

    0 Tocaron 0 Aún no

    ¡Graba un video tocando Sonic Reducer y envíanoslo!

    00:00 / 00:00
    Outros vídeos desta música
    Repetir Calidad Automático
    Outros vídeos desta música
    00:00 / 00:00
    Automático
    OK