Cifra Club

What Love Is

Dead Boys

Tab de bajo: Principal
What love is
Young Lound And Snotty

----------------------------------------------------------------------------|
----------------------------------------------------------------------------|
-----------------------5------5---------7---------5------7-------5----------|
--5-5-5-5-5-5-5-5-----------------------------------------------------------|

----------------------------------------------------------------------------|
----------------------------------------------------------------------------|
-----------------------5------5---------7---------5------7-------5----------|
--5-5-5-5-5-5-5-5-----------------------------------------------------------|
Composición de Cheetah Chrome
15 vistas

0 comentarios

Ver todos los comentarios

¿Lograste tocar?

0 Tocaron 0 Aún no

¡Graba un video tocando What Love Is y envíanoslo!

00:00 / 00:00
Outros vídeos desta música
Repetir Calidad Automático
Outros vídeos desta música
00:00 / 00:00
Automático
OK