Cifra Club

Condemned

Dead By Sunrise

Cifrado: Principal (guitarra y guitarra eléctrica)
tono: G
 Intro:
E|---------------------------------------------------------------------------|
B|---------------------------------------------------------------------------|
G|---------------------------------------------------------------------------|
D|---------------------------------------------------------------------------|
A|-9-9-9-9--8-8--3-3-3-3--7-7---9-9-9-9--8-8--3-3-3-3--7-7-------------------|
E|-7-7-7-7--6-6--1-1-1-1--5-5---7-7-7-7--6-6--1-1-1-1--5-5-------------------|

 Verso:
E|---------------------------------------------------------------------------|
B|---------------------------------------------------------------------------|
G|---------------------------------------------------------------------------|
D|---------------------------------------------------------------------------|
A|-9-9-9-9-9-8-8-6-3-3-3-3-3-3-3-3-------------------------------------------|
E|-7-7-7-7-7-6-6-4-1-1-1-1-1-1-1-1-------------------------------------------|

 Refrão:
E|---------------------------------------------------------------------------|
B|---------------------------------------------------------------------------|
G|---------------------------------------------------------------------------|
D|----4--------------4-------------------------------------------------------|
A|-2--2--5--10----2--2--5--3-------------------------------------------------|
E|-0-----3--8-----0-----3--1-------------------------------------------------|

  Verso:
E|---------------------------------------------------------------------------|
B|---------------------------------------------------------------------------|
G|---------------------------------------------------------------------------|
D|---------------------------------------------------------------------------|
A|-9-9-9-9-9-8-8-6-3-3-3-3-3-3-3-3-------------------------------------------|
E|-7-7-7-7-7-6-6-4-1-1-1-1-1-1-1-1-------------------------------------------|

 Pré-refrão:
E|---------------------------------------------------------------------------|
B|---------------------------------------------------------------------------|
G|---------------------------------------------------------------------------|
D|---------------------------------------------------------------------------|
A|-9-9-9-9-9-8-8-6-3-3-3-3-3-3-3-3-------------------------------------------|
E|-7-7-7-7-7-6-6-4-1-1-1-1-1-1-1-1-------------------------------------------|

 Refrão:
E|---------------------------------------------------------------------------|
B|---------------------------------------------------------------------------|
G|---------------------------------------------------------------------------|
D|----4--------------4-------------------------------------------------------|
A|-2--2--5--10----2--2--5--3-------------------------------------------------|
E|-0-----3--8-----0-----3--1-------------------------------------------------|

 Pre-solo:
E|---------------------------------------------------------------------------|
B|---------------------------------------------------------------------------|
G|---------------------------------------------------------------------------|
D|---------------------------------------------------------------------------|
A|-3-3-3-3-3-3-3-3-----------------------------------------------------------|
E|-1-1-1-1-1-1-1-1-----------------------------------------------------------|

 Solo:
E|---------------------------------------------------------------------------|
B|---------------------------------------------------------------------------|
G|---------------------------------------------------------------------------|
D|---------------------------------------------------------------------------|
A|-9-9-9-9--8-8--3-3-3-3--7-7------------------------------------------------|
E|-7-7-7-7--6-6--1-1-1-1--5-5------------------------------------------------|

 Ponte:
E|---------------------------------------------------------------------------|
B|---------------------------------------------------------------------------|
G|---------------------------------------------------------------------------|
D|---------------------------------------------------------------------------|
A|-8-8-8-8-9-9-9-9-12-12-12-13~--14-14\--------------------------------------|
E|-6-6-6-6-7-7-7-7-10-10-10-11~--12-12\--------------------------------------|
00:00 / 00:00
Otros videos de esta canción
Repetir
Otros videos de esta canción
Composición de A. Valcic / Amir Derakh / Anthony Valcic / C. Bennington / Ryan Shuck
Colaboración y revisión:
  • Mansinho Jr.
44 vistas
    • ½ Tono
    • A
    • Bb
    • B
    • C
    • Db
    • D
    • Eb
    • E
    • F
    • F#
    • G
    • Ab
  • Agregar a la lista

    0 comentarios

    Ver todos los comentarios

    ¿Lograste tocar?

    0 Tocaron 0 Aún no

    ¡Graba un video tocando Condemned y envíanoslo!

    00:00 / 00:00
    OK