Cifra Club

Crawl Back In

Dead By Sunrise

Cifrado: Principal (guitarra y guitarra eléctrica)
tono: E
(intro)
--------------------------------------------|
--------------------------------------------|
--------------------------------------------|
--5-5-5-5-----------------------------------|
--3-3-3-3-2-2-2-2-7-7-6-5-5-5-5-5-----------|
----------0-0-0-0-5-5-4-3-3-3-3-3-----------|

(chorus)
---------------------------------------------------------|
---------------------------------------------------------|
---------------------------------------------------------|
---------------------------------------------------------|
--77777777777777777710101010101010101010101010101010-----|
--77777777777777777710101010101010101010101010101010-----|
--5555555555555555558-8-8-8-8-8-8-8-8-8-8-8-8-8-8-8------|

(post-chorus 1 Lead)
---------------------------------------------------------------------------|
---------------------------------------------------------------------------|
--7-7-7(b9)(b9)(b9)(b9)(b9)(b9)7-7-7(b9)(b9)(b9)(b9)(b9)(b9)7-7-7(b9)(b9)(b9)(b9)(b9)(b9)7-7-7(b9)(b9)(b9)(b9)(b9)(b9)-|
---------------------------------------------------------------------------|
---------------------------------------------------------------------------|
---------------------------------------------------------------------------|

(post chorus 1 Rhythm)
--------------------------------------------|
--------------------------------------------|
--------------------------------------------|
--5-5-5-5-----------------------------------|
--3-3-3-3-2-2-2-2-7-7-6-5-5-5-5-5-----------|
----------0-0-0-0-5-5-4-3-3-3-3-3-----------|

(verse 2 Lead)
-------------------|
-------------------|
--4b5-r------------|
-------------------| x3
-------------------|
-------------------|

(verse 2 Rhythm)
--------------------------------------------|
--------------------------------------------|
--------------------------------------------|
--5-5-5-5-----------------------------------|
--3-3-3-3-2-2-2-2-7-7-6-5-5-5-5-5-----------|
----------0-0-0-0-5-5-4-3-3-3-3-3-----------|

(chorus 2)
---------------------------------------------------------|
---------------------------------------------------------|
---------------------------------------------------------|
---------------------------------------------------------|
--77777777777777777710101010101010101010101010101010-----| x2
--77777777777777777710101010101010101010101010101010-----|
--5555555555555555558-8-8-8-8-8-8-8-8-8-8-8-8-8-8-8------|

---------------------------------------------------------|
---------------------------------------------------------|
---------------------------------------------------------|
--12121212121212121212121212121212-----------------------|
--12121212121212121212121212121212-----------------------|
--10101010101010101010101010101010-----------------------|

---------------------------------------------------------|
---------------------------------------------------------|
---------------------------------------------------------|
---------------------------------------------------------|
--77777777777777777710101010101010101010101010101010-----|
--77777777777777777710101010101010101010101010101010-----|
--5555555555555555558-8-8-8-8-8-8-8-8-8-8-8-8-8-8-8------|

---------------------------------------------------------|
---------------------------------------------------------|
---------------------------------------------------------|
--12121212121212121212121212121212-----------------------|
--12121212121212121212121212121212-----------------------|
--10101010101010101010101010101010-----------------------|

(solo)
--------------------------10---12---14b15r14---11b12---11b12---11*----|
-------------10-----12------------------------------------------------|
--10b11---(b9)---(b9)0----(b9)0---(b9)0--(b9)0----------------------------------|
----------------------------------------------------------------------|
----------------------------------------------------------------------|
----------------------------------------------------------------------|

--12-14-12-17-12-12---12------------------------------|
--------------------12--12--12p11p10-11b12r11---------|
------------------------------------------------------|
------------------------------------------------------|
------------------------------------------------------|
------------------------------------------------------|

----------------------12/-10-------------|
--8-5--------10--10-12------8-10-8-11b---|
------7h9p7----12------------------------|
-----------------------------------------|
-----------------------------------------|
-----------------------------------------|

-----------------------------------------------------------------------------|
--11b--11b--11b--15b--15b--15b--15b--17b17b17b17b17b17b17b17b17b17b1717b17b--|
-----------------------------------------------------------------------------|
-----------------------------------------------------------------------------|
-----------------------------------------------------------------------------|
-----------------------------------------------------------------------------|

(chorus 3)
---------------------------------------------------------|
---------------------------------------------------------|
---------------------------------------------------------|
---------------------------------------------------------|
--77777777777777777710101010101010101010101010101010-----| x2
--77777777777777777710101010101010101010101010101010-----|
--5555555555555555558-8-8-8-8-8-8-8-8-8-8-8-8-8-8-8------|

---------------------------------------------------------|
---------------------------------------------------------|
---------------------------------------------------------|
--12121212121212121212121212121212-----------------------|
--12121212121212121212121212121212-----------------------|
--10101010101010101010101010101010-----------------------|

---------------------------------------------------------|
---------------------------------------------------------|
---------------------------------------------------------|
---------------------------------------------------------|
--77777777777777777710101010101010101010101010101010-----|
--77777777777777777710101010101010101010101010101010-----|
--5555555555555555558-8-8-8-8-8-8-8-8-8-8-8-8-8-8-8------|

---------------------------------------------------------|
---------------------------------------------------------|
---------------------------------------------------------|
--12121212121212121212121212121212-----------------------|
--12121212121212121212121212121212-----------------------|
--10101010101010101010101010101010-----------------------|

---------------------------------------------------------|
---------------------------------------------------------|
---------------------------------------------------------|
---------------------------------------------------------|
--77777777777777777710101010101010101010101010101010-----|
--77777777777777777710101010101010101010101010101010-----|
--5555555555555555558-8-8-8-8-8-8-8-8-8-8-8-8-8-8-8------|

---------------------------------------------------------|
---------------------------------------------------------|
---------------------------------------------------------|
--12121212121212121212121212121212-----------------------|
--12121212121212121212121212121212-----------------------|
--10101010101010101010101010101010-----------------------|

(outro)
--------------------------------------------|
--------------------------------------------|
--------------------------------------------| x4
--5-5-5-5-----------------------------------|
--3-3-3-3-2-2-2-2-7-7-6-5-5-5-5-5-----------|
----------0-0-0-0-5-5-4-3-3-3-3-3-----------|

00:00 / 00:00
Otros videos de esta canción
Repetir
Otros videos de esta canción
Composición de A. Valcic / Amir Derakh / Anthony Valcic / C. Bennington / Ryan Shuck
Colaboración y revisión:
  • Vinicius Oliveira
66 vistas
    • ½ Tono
    • A
    • Bb
    • B
    • C
    • Db
    • D
    • Eb
    • E
    • F
    • F#
    • G
    • Ab
  • Agregar a la lista

    0 comentarios

    Ver todos los comentarios

    ¿Lograste tocar?

    2 Tocaron 0 Aún no

    ¡Graba un video tocando Crawl Back In y envíanoslo!

    00:00 / 00:00
    OK