Cifra Club

My Suffering

Dead By Sunrise

Cifrado: Principal (guitarra y guitarra eléctrica)
tono: G
(afinação D)

(verse Riff)
E|---------------------------------------------------------------------------|
B|---------------------------------------------------------------------------|
G|---------------------------------------------------------------------------|
D|-12-12-12--7-7-7--15-15-15--10-10-10--12-12-12--7-7-7--15-15-15--10-10-10--|
A|-12-12-12--7-7-7--15-15-15--10-10-10--12-12-12--7-7-7--15-15-15--10-10-10--|
D|-12-12-12--7-7-7--15-15-15--10-10-10--12-12-12--7-7-7--15-15-15--10-10-10--|

 (pre-chorus)
E|---------------------------------------------------------------------------|
B|---------------------------------------------------------------------------|
G|---------------------------------------------------------------------------|
D|-12-12-12-12-7-7-7-7-15-15-15-15-10-10-10-10-------------------------------|
A|-12-12-12-12-7-7-7-7-15-15-15-15-10-10-10-10-------------------------------|
D|-12-12-12-12-7-7-7-7-15-15-15-15-10-10-10-10-------------------------------|

 (chorus)
E|---------------------------------------------------------------------------|
B|---------------------------------------------------------------------------|
G|---------------------------------------------------------------------------|
D|-3-3-3-3-3-3-3-3-7-7-7-7-7-7-7-7-5-5-5-5-5-5-5-5-0-0-0-0-0-0-0-0-----------|
A|-3-3-3-3-3-3-3-3-7-7-7-7-7-7-7-7-5-5-5-5-5-5-5-5-0-0-0-0-0-0-0-0-----------|
D|-3-3-3-3-3-3-3-3-7-7-7-7-7-7-7-7-5-5-5-5-5-5-5-5-0-0-0-0-0-0-0-0-----------|

 (pre-verse)
E|---------------------------------------------------------------------------|
B|---------------------------------------------------------------------------|
G|---------------------------------------------------------------------------|
D|-12-12-12-12-7-7-7-7-15-15-15-15-10-10-10-10-------------------------------|
A|-12-12-12-12-7-7-7-7-15-15-15-15-10-10-10-10-------------------------------|
D|-12-12-12-12-7-7-7-7-15-15-15-15-10-10-10-10-------------------------------|

(verse and chorus again,after them there is)
(bridge)
E|---------------------------------------------------------------------------|
B|---------------------------------------------------------------------------|
G|---------------------------------------------------------------------------|
D|-5-5-5-5--5-5-5-5--5-5-5-5--5-5-5-5----------------------------------------|
A|-5-5-5-5--5-5-5-5--5-5-5-5--5-5-5-5----------------------------------------|
D|-5-5-5-5--5-5-5-5--5-5-5-5--5-5-5-5----------------------------------------|

E|---------------------------------------------------------------------------|
B|---------------------------------------------------------------------------|
G|---------------------------------------------------------------------------|
D|-5-5-5-5--15--5-5-5-5--5-5-5-5--15--5-5-5-5--------------------------------|
A|-5-5-5-5--15--5-5-5-5--5-5-5-5--15--5-5-5-5--------------------------------|
D|-5-5-5-5--15--5-5-5-5--5-5-5-5--15--5-5-5-5--------------------------------|

E|---------------------------------------------------------------------------|
B|---------------------------------------------------------------------------|
G|---------------------------------------------------------------------------|
D|-8--8--8--8--8--8--8--8---7-7--7-7-7--10-10-10--10-10-10-------------------|
A|-8--8--8--8--8--8--8--8---7-7--7-7-7--10-10-10--10-10-10-------------------|
D|-8--8--8--8--8--8--8--8---7-7--7-7-7--10-10-10--10-10-10-------------------|

(after bridge play last chorus with pre-chorus as outro.Listen to audio to get rhythm)

| /  slide up
| \  slide down
| h  hammer-on
| p  pull-off
| ~  vibrato
| +  harmonic
| x  Mute note
00:00 / 00:00
Otros videos de esta canción
Repetir
Otros videos de esta canción
Composición de A. Valcic / Amir Derakh / Anthony Valcic / C. Bennington / Ryan Shuck
Colaboración y revisión:
  • Andy Steward
41 vistas
    • ½ Tono
    • A
    • Bb
    • B
    • C
    • Db
    • D
    • Eb
    • E
    • F
    • F#
    • G
    • Ab
  • Agregar a la lista

    0 comentarios

    Ver todos los comentarios

    ¿Lograste tocar?

    0 Tocaron 0 Aún no

    ¡Graba un video tocando My Suffering y envíanoslo!

    00:00 / 00:00
    OK