Cifra Club

A Inevitável Mudança

Dead Fish

Cifrado: Principal (guitarra y guitarra eléctrica)
tono: B (con acordes en la forma de D) Afinación: Db Gb B E Ab Db
[Introdução - Drop C#]

    D5               C5 B5 D5   C5 B5 D5   C5 B5 D5 
E|--------------------------------------------------|
B|--------------------------------------------------|
G|--------------------------------------------------|
D|--------------------------------------------------|
A|------------0-----10--9--0---10--9--0---10--9--0--|
E|-0--0-0-0-0-0-----10--9--0---10--9--0---10--9--0--|


[Verso 01] (2x)

    D5                      D5
E|----------------------------------------------------|
B|-3~~~~------10-8-7--8p7--3~~~~-------10-10-10-10-10-|
G|-2~~~~------7~~~~~~~~~~--2~~~~----------------------|
D|-0~~~~------0~~~~~~~~~~--0~~~~----------------------|
A|-0~~~~------0~~~~~~~~~~--0~~~~----------------------|
E|-0~~~~------0~~~~~~~~~~--0~~~~----------------------|


A narrativa vinda do colonizador
Tingiu de branco nossa história
E sem escrúpulo omitiu e apagou
O outro lado da moeda

[Refrão]

   D5    F5   G5 F5 G5 C5
E|--------------------------------------------------|
B|--------------------------------------------------|
G|--------------------------------------0-----------|
D|-------------------------(3x)-------0---0--3p0----|
A|-0--0-3-3---5-3-5/10-10------------------------3--|
E|-0--0-3-3---5-3-5/10-10----------/6~~~~-----------|

Mas cada dia mais
Janelas vão se abrir
E a diversidade vai brilhar ao sol

[Intro]

[Verso 02]

    D5                      D5
E|--------------------------------------------------|
B|-3~~~~------10-8-7--8p7--3~~~~--------------------|
G|-2~~~~------7~~~~~~~~~~--2~~~~------/4-4-4-4------|
D|-0~~~~------0~~~~~~~~~~--0~~~~--------------------|
A|-0~~~~------0~~~~~~~~~~--0~~~~--------------------|
E|-0~~~~------0~~~~~~~~~~--0~~~~--------------------|

    D5                      D5
E|----------------------------------10----10----10----|
B|-3~~~~------10-8-7--8p7--3~~~~----13b15-13b15-13b15-|
G|-2~~~~------7~~~~~~~~~~--2~~~~----------------------|
D|-0~~~~------0~~~~~~~~~~--0~~~~----------------------|
A|-0~~~~------0~~~~~~~~~~--0~~~~----------------------|
E|-0~~~~------0~~~~~~~~~~--0~~~~----------------------|

O passado frágil corre pra se proteger
Tranca a porta e fecha as cortinas
O presente do futuro que tem que acontecer
Chega e se pronuncia

[Refrão]

   D5    F5   G5 F5 G5 C5
E|------------------------------------------------------|
B|------------------------------------------------------|
G|--------------------------------------0---------------|
D|-------------------------(3x)-------0---0--3p0---(4x)-|
A|-0--0-3-3---5-3-5/10-10------------------------3------|
E|-0--0-3-3---5-3-5/10-10----------/6~~~~---------------|

E logo ao escutar
A voz de outro alguém
O velho se põe a gritar
Espernear, tenta abafar
A inevitável mudança

[Ponte]

D5 / F#5 F5 / F#5 D5 / F#5 F5 / F#5 D5 /

Do ponto cego da história brotam vozes de resistência e de luta
Quando o oprimido finalmente se expressa o resto, cala e escuta
Tirando aqueles que nunca querem ouvir
Fecham os olhos e sonham com aquilo que nunca mais será

[Final]

    D5               C5 B5 D5   C5 B5 D5   C5 B5 D5 
E|--------------------------------------------------|
B|--------------------------------------------------|
G|--------------------------------------------------|
D|--------------------------------------------------|
A|------------0-----10--9--0---10--9--0---10--9--0--|
E|-0--0-0-0-0-0-----10--9--0---10--9--0---10--9--0--|

Nunca mais será
Composición de Álvaro Dutra / Alyland / Marcão Melloni / Ric Mastria / Rodrigo Lima
Colaboración y revisión:
  • Renan Luiz
    • ½ Tono
    • A
    • Bb
    • B
    • C
    • Db
    • D
    • Eb
    • E
    • F
    • F#
    • G
    • Ab
  • Agregar a la lista

    0 comentarios

    Ver todos los comentarios

    ¿Lograste tocar?

    0 Tocaron 0 Aún no

    ¡Graba un video tocando A Inevitável Mudança y envíanoslo!

    00:00 / 00:00
    Otros videos de esta canción
    Repetir Calidad Automático
    Otros videos de esta canción
    00:00 / 00:00
    Automático
    OK