Cifra Club

Exílio

Dead Fish

Cifrado: Principal (guitarra y guitarra eléctrica)
tono: Db
Intro: Bbm Ab (Dbm)   Riff 1   Riff 2

Riff 3
O mesmo céu, a mesma cor
Riff 4
Quanto tempo passou?
Riff 3
Não há mais o que provar
Riff 5
Recomeçar em outro lugar
Riff 6
Que relevância pode existir
Riff 7                       Gb
em lamentar agora o que não fez?

     Db
Se arrepender por cometer
    Bbm           Gb
Os mesmos erros outra vez
    Db
Sem algo em que acreditar
    Bbm           Gb
Não posso mais ficar aqui

Intro: Bbm Ab (Bbm)   Riff 1   Riff 2

Riff 3
Quem vai poder reconhecer
Riff 4
certezas que viraram pó?
Riff 3
Abandonar o que conquistou
Riff 5
Escolhas que não tem retorno
Riff 6
Inventar outra verdade
Riff 7                    Gb
E buscar o que nunca imaginou

     Db
Se arrepender por cometer
    Bbm           Gb
Os mesmos erros outra vez
    Db
Sem algo em que acreditar
    Bbm           Gb
Não posso mais ficar aqui
Bbm
Não posso mais

Solo: Bbm Ab

Db
                Bbm
O que ficou pra trás
                 Gb
Não deve te prender
                Ab
Impossível alcançar
                Bbm
Pois não existe mais
               Dbm
O que você ganhou...
               Abm
O que você perdeu...
                  Gb Ab
São mais do que lições

     Db
Se arrepender por cometer
    Bbm           Gb
Os mesmos erros outra vez
    Db
Sem algo em que acreditar
    Bbm           Gb
Não posso mais ficar aqui


Bbm        Db      Ab     Bbm
Não somos mais os mesmos
           Db/Gb    Ab    Bbm
Nem antes, nem depois
               Db       Ab     Bbm
Caminhos quase sempre incertos
       Ab          Db/Gb
Imprevisível é viver 

Riff 1
e|------------------------
a--4---4--------------4--
d----3---1-3----3-1-3----
g------------1-----------

Riff 2 
e|--------------------
a--4---4----------4--
d----3---1-3----1----
g------------1-------

Riff 3
e|--------------------------
a-4---4-------------4---4--
d---3---1-3---1-3-1---1----
g-----------1--------------

Riff 4
e|---------------------------
a-4---4-----------------4---
d---3---1-3-------1-3-1-----
g-----------3-3--3----------

Riff 5
e|-----------------------------
a-4---4-----------4-------1/4-
d---3---1-3---3-1---1-3-1-----
g-----------1-----------------

Riff 6
b-9-7-6-4/2-

Riff 7
b-9-7-6-2h4-
00:00 / 00:00
Otros videos de esta canción
Repetir
Otros videos de esta canción
Composición de Dead Fish
Colaboración y revisión:
  • mauricio souza
34 vistas
    • ½ Tono
    • A
    • Bb
    • B
    • C
    • Db
    • D
    • Eb
    • E
    • F
    • F#
    • G
    • Ab
  • Agregar a la lista

    0 comentarios

    Ver todos los comentarios

    ¿Lograste tocar?

    0 Tocaron 0 Aún no

    ¡Graba un video tocando Exílio y envíanoslo!

    00:00 / 00:00
    OK