Cifra Club

MST

Dead Fish

Cifrado: Principal (guitarra y guitarra eléctrica)
tono: A
A                E 
Quem você pensa que eu sou 
C                    D C
aquele que você viu na TV
A                 E                   C         D                 
o que te faz pensar que sou tão diferente de você
A                 E                   C         D   
também tenho família e também meus filhos pra criar
A                   E 
mais sou que estou aqui
C                             D
lutando pelo que é meu por direito


Na última parte antes do refrão "mas sou que estou aqui..." faz:
uma guitarra só....... 

e|---------------------------------------|
b|---------------------------------------|
g|---14--14--14--14------9--9--9--9------|
d|---x---x---x---x-------x--x--x--x------|
a|---12--12--12--12------7--7--7--7------|
E|---------------------------------------|


(A|-E|-C-G|-G#-A)
Devo ocupar
Devo produzir 3x 
Devo resistir

no refrão faz......nas duas últimas partes.....
e|-------------------------------------------------------------------|
b|-------------------------------------------------------------------|
g|--------------------------------------5--5--5--5---7---------------|   (2x)
d|---7----7-7--7-----2---2-2---2--2-----5--5--5--5---5------5--6--7--|
a|---7----7-7--7-----2---2-2---2--2-----3--3--3--3----------5--6--7--|
E|---5----5-5--5-----0---0-0---0--0-------------------------3--4--5--|
          m m            m m            m  m  m  m
m - palm mute



(igual 1ª parte)
Pouco me importa se você não gosta 
da cor da minha bandeira
Pois sou eu que estou aqui
e sou eu que tomo bala dos que deviam
me proteger
falsos amigos de uma nação
não querem ensinar o que é um cidadão

Na última parte antes do refrão "não querem ensinar..." faz:
uma guitarra só....... 

e|--------------------------------------|
b|--------------------------------------|
g|---14--14--14--14------9--9--9--9-----|
d|---x---x---x---x-------x--x--x--x-----|
a|---12--12--12--12------7--7--7--7-----|
E|--------------------------------------|



(A|-E|-C-G|-G#-A)
Devo ocupar 
Devo produzir 3x 
Devo resistir

ai no refrão faz......nas duas últimas partes.....
e|--------------------------------------------------------------------|
b|--------------------------------------------------------------------|
g|--------------------------------------5--5--5--5---7----------------|   (2x)
d|---7----7-7--7-----2---2-2---2--2-----5--5--5--5---5-------5--6--7--|
a|---7----7-7--7-----2---2-2---2--2-----3--3--3--3-----------5--6--7--|
E|---5----5-5--5-----0---0-0---0--0--------------------------3--4--5--|
          m m            m m            m  m  m  m
m - palm mute

quando acaba o segundo refrão deixa soar a nota "A" ai faz :
ver o tempo de acordo com a música

e|-------------------------------------------|
b|----7*-------------------------------------|
g|---------7*--------------------------------| 
d|---------------7*------14~~~---------------|
a|-------------------------------------------|
E|-------------------------------------------|

*= nota harmônica



(A|-E|-D|-C-B)
"O campo brasileiro continua produzindo sangue e assistindo como no passado a um desfile de
bandeiras vermelhas entre multidões de miseraveis sob o comando do mst, cmbater um latifundio
desapropriar ocupar e destribuir as palavras de odio que resistem ao tempo como resistem a consentração
diaria; 0,9 dos produtores detem mais de 35% das terras"

(igual 1ª parte)
A ganância dessa elite já foi demais 
400 anos de massacre já é demais 
(A|-E|-C-G|-G#-A)
Vou ocupar 
Vou produzir
Vou resistir
00:00 / 00:00
Otros videos de esta canción
Repetir
Otros videos de esta canción
Composición de Rodrigo Lima
62 vistas
    • ½ Tono
    • A
    • Bb
    • B
    • C
    • Db
    • D
    • Eb
    • E
    • F
    • F#
    • G
    • Ab
  • Agregar a la lista

    0 comentarios

    Ver todos los comentarios

    ¿Lograste tocar?

    0 Tocaron 0 Aún no

    ¡Graba un video tocando MST y envíanoslo!

    00:00 / 00:00
    OK