Cifra Club

Sonho Médio

Dead Fish

Cifrado: Principal (guitarra y guitarra eléctrica)
tono: E
Intro

E|----------------------------------|
B|----------------------------------| 2x
G|---6-6-6--2-2-2--4-4-4------------|
D|---6-6-6--2-2-2--4-4-4--2-2-2-----|
A|---4-4-4--0-0-0--2-2-2--2-2-2-----|
E|------------------------0-0-0-----|

E|----------------------------------|
B|----------------------------------|
G|---4--2---------------------------|
D|---4--2---------------------------|
A|---2--0---------------------------|
E|----------------------------------|


Versos 1

E|----------------------------------|
B|--10--10--10--10----9--9--9--9----|
G|--x---x---x---x-----x--x--x--x----|
D|--7---7---7---7-----6--6--6--6----|
A|----------------------------------|
E|----------------------------------|


Refrão

E|----------------------------------|
B|----------------------------------| 2x
G|---6-6-6--2-2-2--4-4-4------------|
D|---6-6-6--2-2-2--4-4-4--2-2-2-----|
A|---4-4-4--0-0-0--2-2-2--2-2-2-----|
E|------------------------0-0-0-----|

E|----------------------------------|
B|----------------------------------|
G|---4--2---------------------------|
D|---4--2---------------------------|
A|---2--0---------------------------|
E|----------------------------------|


Versos 2

E|----------------------------------|
B|--10--10--10--10----9--9--9--9----|
G|--x---x---x---x-----x--x--x--x----|
D|--7---7---7---7-----6--6--6--6----|
A|----------------------------------|
E|----------------------------------|



"Não me importa se meus filhos não tenham educação/Eles tem que ter dinheiro e visual"

E|----------------------------------|
B|----------------------------------|
G|--9-9-9-9--8-8-8-8--13--13--14--14|
D|--x-x-x-x--x-x-x-x--x---x---x---x-|
A|--7-7-7-7--6-6-6-6--11--11--12--12|
E|----------------------------------|

E|----------------------------------|
B|----------------------------------|
G|--9-9-9-9--8-8-8-8--11/-13/14--14-|
D|--x-x-x-x--x-x-x-x--x/--x-/x---x--|
A|--7-7-7-7--6-6-6-6--9/--11/12--12-|
E|----------------------------------|

Refrão

E|----------------------------------|
B|----------------------------------| 2x
G|---6-6-6--2-2-2--4-4-4------------|
D|---6-6-6--2-2-2--4-4-4--2-2-2-----|
A|---4-4-4--0-0-0--2-2-2--2-2-2-----|
E|------------------------0-0-0-----|

E|----------------------------------|
B|----------------------------------|
G|---4--2---------------------------|
D|---4--2---------------------------|
A|---2--0---------------------------|
E|----------------------------------|
00:00 / 00:00
Otros videos de esta canción
Repetir
Otros videos de esta canción
Composición de Rodrigo Lima
Colaboración y revisión:
  • Matheus
  • Marcello Maccarini
117 vistas
    • ½ Tono
    • A
    • Bb
    • B
    • C
    • Db
    • D
    • Eb
    • E
    • F
    • F#
    • G
    • Ab
  • Agregar a la lista

    0 comentarios

    Ver todos los comentarios

    ¿Lograste tocar?

    1 Tocaron 0 Aún no

    ¡Graba un video tocando Sonho Médio y envíanoslo!

    00:00 / 00:00
    OK