Cifra Club

Sua Bandeira

Dead Fish

Cifrado: Principal (guitarra y guitarra eléctrica)
tono: C
Intro: A  - F (2x)

SOLO DE ENTRADA

E|---------------------------------------|
B|---------------------------------------|
G|--------5------------------------------|
D|--5-7-7---7-5-7--7-7-7-7---------------|
A|---------------------------------------|
E|---------------------------------------|

A                                F      
Te avisaram mas vc fingiu nao entender,
Agora é tarde para tentar voltar atrás!
A sua bandeira se tornou prisão,
Posso sentir o ódio em seu brasão.
Não prefiro não, quero lutar mas em outra direção!

Solo:Nesta parte: "não prefiro não..." uma guitarra faz
E|------------------------------------------------|
B|------------------------------------------------|
G|--7p5--7p5-----7p5-7br-5-7p5-7b--5-7p5----------|
D|-----7----7-5--------------------------7--------|
A|------------------------------------------------|
E|------------------------------------------------|


A                  C               G
E se tiveram esperanças, se tiraram seu emprego, se 
   A
pediram pra esquecer.
Nesta parte:"se te pediram pra esquecer" a guitarra solo faz:
E|---------------------------------------|
B|---------------------------------------|
G|--10-9--10-10-9------------------------|
D|--x--x--x--x--x------------------------|
A|--8--7--8--8--7------------------------|
E|---------------------------------------|
Aí volta a intro
E|---------------------------------------|
B|---------------------------------------|
G|--------5------------------------------|
D|--5-7-7---7-5-7--7-7-7-7---------------|
A|---------------------------------------|
E|---------------------------------------|

A                   F
Vc não quiz se aprofundar,
o verdadeiro motivo seu orgulho vai esconder.
O grande pai vai te falar,
São histórias vindas de outro lugar.
Amor e curação, é o maior orgulho, mas sera em vão!

Solo:Nesta parte: "não prefiro não..." uma guitarra faz
E|------------------------------------------------|
B|------------------------------------------------|
G|--7p5--7p5-----7p5-7br-5-7p5-7b--5-7p5----------|
D|-----7----7-5--------------------------7--------|
A|------------------------------------------------|
E|------------------------------------------------|


A                  C                 G          A
Pois seu pano limpo, com listras e estrelas, me fez lembrar o Mickey Mouse.

Nesta parte:"me fez lembrar..." a guitarra solo faz:
E|---------------------------------------|
B|---------------------------------------|
G|--10-9--10-10-9------------------------|
D|--x--x--x--x--x------------------------|
A|--8--7--8--8--7------------------------|
E|---------------------------------------|


A                         F
Não vou cantar(não vou cantar), 
esse hino que vc quer me obrigar.
O mundo todo é como uma nação.
Se chama humanidade mas parece sofrer em vão.
Sou um cidadão!
Quero igualdade não ser o chefão!

Solo:Nesta parte: "sou um cidadão..." uma guitarra faz
E|------------------------------------------------------|
B|------------------------------------------------------|
G|--7p5--7p5--7p5--7p5--5-7b-5 7p5--5-7br-5-7p5----5----|
D|-----7----7----7----7-----------7------------7--------|
A|------------------------------------------------------|
E|------------------------------------------------------|
00:00 / 00:00
Otros videos de esta canción
Repetir
Otros videos de esta canción
Composición de Dead Fish
20 vistas
    • ½ Tono
    • A
    • Bb
    • B
    • C
    • Db
    • D
    • Eb
    • E
    • F
    • F#
    • G
    • Ab
  • Agregar a la lista

    0 comentarios

    Ver todos los comentarios

    ¿Lograste tocar?

    0 Tocaron 0 Aún no

    ¡Graba un video tocando Sua Bandeira y envíanoslo!

    00:00 / 00:00
    OK