Cifra Club

Punk Rock Girl Intro

Dead Milkmen

Cifrado: Principal (guitarra y guitarra eléctrica)
Selo Cifra Club: esta cifra foi revisada para atender aos critérios oficiais da nossa Equipe de Qualidade.
tono: C
Tabbed by: dirtybeaner
Email:*

Tuning: EADGBE 

e|---------------------------------------------------------------------------|
B|---------------------------------------------------------------------------|
G|--10--10-----------10------------10--10-----------10----7--7---------------|
D|--10--10-----------10--10-12-10--10--10-----------10----7--7---------------|
A|--8---8--10-12-10--8-------------8---8--10-12-10--8-----5--5--8-7-5--------|
E|---------------------------------------------------------------------------|

e|---------------------------------------------------------------------------|
B|----------------------------------------------------------11-11-----10-10--|
G|--10--10-----------10-------------7--7---9---10-10---10---10-10-12--9--9---|
D|--10--10-----------10--10-12-10---7--7---9---10-10---10---8--8--12--7--7---|
A|--8---8--10-12-10--8--------------5--5---7---8--8----8----------10---------|
E|---------------------------------------------------------------------------|

e|---------------------------------------------------------------------------|
B|---------------------------------------------------------------------------|
G|--12--12---9---10-10-------------------------------------------------------|
D|--12--12---9---10-10-------------------------------------------------------|
A|--10--10---7---8--8--------------------------------------------------------|
E|---------------------------------------------------------------------------|
Otros videos de esta canción
    12 exhibiciones
      • ½ Tono
      • A
      • Bb
      • B
      • C
      • Db
      • D
      • Eb
      • E
      • F
      • F#
      • G
      • Ab
    • Agregar a la lista

    Afinação da cifra

    Afinador online

      Ops (: Contenido disponible solo en portugués.
      OK