Cifra Club

Swordfish

Dead Milkmen

Tab de bajo: Principal
Selo Cifra Club: esta cifra foi revisada para atender aos critérios oficiais da nossa Equipe de Qualidade.
yo, its the flex and it took me a long time to get this tab so you guys are lucky i
 im a big fan of the milkmen so it shouldn't be to long before i get another one.  also 
is my first tab i've put here so if i screwed it up then oh well.


main riff
G|-------------------------|
D|----9-8---------9-8---9b-|
A|--7-----4-5-6-7-----7----|
E|-------------------------|


break
G|---------7-9--------------|
D|-------7------------7-9-9-|
A|-----9------------9-------|  x2
E|-7-9----------7-9---------|
Otros videos de esta canción
    13 exhibiciones

    Afinação da cifra

    Afinador online

    Ops (: Contenido disponible solo en portugués.
    OK