Cifra Club

Taking Retards To The Zoo

Dead Milkmen

Tab de bajo: Principal
Selo Cifra Club: esta cifra foi revisada para atender aos critérios oficiais da nossa Equipe de Qualidade.
i know that this tab is right.  if you think its wrong then your retarded.  this song is 
really really easy.  just listen to the song so you know how long to repeat the verse.


intro/verse

G|----------------------------------|
D|----------------------------------|
A|----3-5-3---3-5-3---3-5-3---3-5-3-|
E|--5-------5-------5-------5-------|


chorus

G|-------------------------------|
D|-------------------------------|
A|-3-3-3-3-----3---3-3-3-3-------|
E|---------1-1-------------1-1-5-|

you can also play the intro/verse like this if it makes it easier for you

G|---------------------------------|
D|---------------------------------|
A|-0-3-5-3-0-3-5-3-0-3-5-3-0-3-5-3-|
E|---------------------------------|
Otros videos de esta canción
    16 exhibiciones

    Afinação da cifra

    Afinador online

    Ops (: Contenido disponible solo en portugués.
    OK