Cifra Club

Once Upon A December

Deana Carter

Cifrado: Principal (guitarra y guitarra eléctrica)
tono: C
[Intro]

  Am                        E                      C7
E|----------5--------5--| R|---------4--------4--|R|---------3--------3-|R|
B|-------5--------5-----| E|------5--------5-----|E|------5--------5----|E|
G|----------5--------5--| P|---------4--------4--|P|---------3--------3-|P|
D|----7-----------------| E|---6-----------------|E|---5----------------|E|
A|-------------7--------| A|------------7--------|A|------------3-------|A|
E|----------------------| T|---------------------|T|--------------------|T|

   Am      Am/F    Am       E
E|---------5------5-----------------4---|
B|---------5------5--------5--------5---|
G|------5------5--------4--------4------|
D|---7---------------7--------6---------|
A|-----------8----------------------7---|
E|--------------------------------------|

Am      E      A/C#    Dm               
Dancing bears  Painted wingsB
Dm/F     Am     Dm/F E                 
Things I almost remember               
Am    E    A/C#    D                    
And a song someone sings                         
Dm/F    Am  E    Am                     
Once upon a December                    
Dm               Am
Someone holds me safe and warm
Dm                        Am      A
Horses prance through a silver storm
Dm/G            Am
Figures dancing gracefully
B            E
Across my memory
Am   E    A/C# Dm
Far away, long ago
Dm/F    Am       Dm/F E 
Glowing dim as an ember
Am        E     A/C#    D
Things my heart used to know
Dm/F   Am   E    Am
Once upon a December

Dm               Am
Someone holds me safe and warm
Dm                        Am      A
Horses prance through a silver storm
Dm/G            Am
Figures dancing gracefully
B            E
Across my memory

A#m   F    A#/D  D#m                    
Far away,  long  ago                    
D#m/F#  A#m        D#m/F#  F            
Glowing dim as  an   ember              
A#m        F    A#/D     D#m            
Things my heart Used to know            
D#m/F#  A#m    F    A#m                 
Once    upon a December                 
                                       
D#m        A#m                          
And a song someone sings                
D#m   A#m       F  A#m                  
Once  upon a December              

[Pré-Solo]                            

 Dm                Am      E    
E|-----0-1--0^1^0--------------------|
B|---3------------3--1--0----0-------|
G|--2-------------2--2----2------1---|
D|-0-------------------------2---2---|
A|-------------------0---------------|
E|---------------------------0-------|

[Solo]

E|--------5-7-7^8^7^5-7---------------------9-12-12/15-15-13-------|
B|-------5--------------9-5-------0------10------------17-15-------|
G|------5------------------------------9---------------------------|
D|-2/7-----------------------------/11-----------------------------|
A|-----------------------------------------------------------------|
E|-----------------------------------------------------------------|

E|----13\---10\---8---7---5---7--7^8^7-5-7-4-----------------------|
B|-------------------------------------------5---------------------|
G|--14----10----9---7---5---7------------------4-4-7---------------|
D|-----------------------------------------------------------------|
A|-----------------------------------------------------------------|
E|-----------------------------------------------------------------|

E|--------5-7-8-/7----/10----/13-----/9------/12------14-----------|
B|------5----------9------12-----15---10-10---14-14---15-----------|
G|--5--------------------------------------------------------------|
D|----7------------------------------------------------------------|
A|-----------------------------------------------------------------|
E|-----------------------------------------------------------------|

E|------14^15-17-13-13--------13-12^13^12--------------------------|
B|----15---------------15-----------------15-13-12-----12\---------|
G|--14--------------------14-----------------------14--13\--13-----|
D|----------------------------------------------------------14-----|
A|-----------------------------------------------------------------|
E|-----------------------------------------------------------------|

E|-----------------------------------------------------------------|
B|--------12-12^13^12----------------------------------------------|
G|--13-14-------------14-12----------------------------------------|
D|--------------------------15-14----------------------------------|
A|-----------------------------------------------------------------|
E|-----------------------------------------------------------------|
Composición de Lynn Ahrens / Stephen Flaherty
Colaboración y revisión:
  • Lucas Gomes
330 vistas
    • ½ Tono
    • A
    • Bb
    • B
    • C
    • Db
    • D
    • Eb
    • E
    • F
    • F#
    • G
    • Ab
  • Agregar a la lista

    0 comentarios

    Ver todos los comentarios

    ¿Lograste tocar?

    1 Tocaron 0 Aún no

    ¡Graba un video tocando Once Upon A December y envíanoslo!

    00:00 / 00:00
    Outros vídeos desta música
    Repetir Calidad Automático
    Outros vídeos desta música
    00:00 / 00:00
    Automático
    OK