Cifra Club

Your Bruise

Death Cab For Cutie

Cifrado: Principal (guitarra y guitarra eléctrica)
Selo Cifra Club: esta cifra foi revisada para atender aos critérios oficiais da nossa Equipe de Qualidade.
tono: E
Tuning: standard 

Guitar 1 (Intro) 

e|--------------------|       
B|---7-5---7-5---7----|        
G|-8-----8-----8---8--|   8 Times 
D|-6-----6-----6---6--|
A|-----------------6--|
E|--------------------|

Guitar 1 (intro to verse part 1)

e|-------------------0-0-0-0-0-0--|
B|---7-5---7-5---7---5-5-4-9-9-9--|
G|-8-----8-----8---8--------------|  4 times 
D|-6-----6-----6---6--------------|
A|-----------------6--------------|
E|--------------------------------|

Guitar 2 (intro to verse part 1)

e|------------------0-0-0--------|
B|------------------5-5-4--------| 
G|---8---------8----------4-6-4--|   4 times 
D|-9---9-6-9-6---9---------------|
A|-------------------------------|
E|-------------------------------|

Guitar 1 (intro to verse part 2 and verse)

e|-------------------|
B|---7-5---7-5---7---|
G|-8-----8-----8---8-|  4 times before lyrics, 8 times during verse
D|-6-----6-----6---6-|
A|-----------------6-|
E|-------------------|

Guitar 2 (intro to verse part 2 and verse) 

e|---------------------------------------------------------------|
B|---------------------------------------------------------------|
G|---------------------------------------------------------------| 
D|--------4-----------------------------4------------------------|
A|-----6----7-6-7-7-7-6-6-4-4-------6-----7-6-6-----4-4-6-6-6----|
E|-4-4--7---------------------7-4-4---7---------7-7--------------|

2 Times before lyrics, 4 times during verse 

Guitar 1 (chorus)

e|-0----------------|
B|-0------8--10--8--|
G|-4---6--9--x---9--|  2 times per chorus 
D|-2---7--9--9---9--|
A|-0---7--7--7---7--|
E|-0---5------------|

you can figure out the strumming pattern on your own

Guitar 2 (chorus)

e|-0------------------------|
B|-0---------------8--10--8-|
G|-4--6--8--11--6--9--x---9-|  2 times per chorus 
D|-2--x--x--x---7--9--9---9-|
A|-0--4--6--9---7--7--7---7-|
E|-0------------5-----------|

once again, listen and you can figure out the strumming on your own

Form (Guitar 1) 
Guitar 1 (intro) x 8
Guitar 1 (intro to verse part 1) x 4
Guitar 1 (intro to verse part 2 and verse) x 12
Guitar 1 (chorus) x 1 
Guitar 1 (intro to verse part 1) x 4
Guitar 1 (chorus) x 2

Form (guitar 2)
Guitar 2 (intro to verse part 1) x 4 
Guitar 2 (intro to verse part 2 and verse) x 6
Guitar 2 (chorus) x 1
Guitar 2 (intro to verse part 1) x 4
Guitar 2 (chorus) x 2 

| / slide up
| \ slide down
| h hammer-on
| p pull-off
| ~ vibrato
| + harmonic
| x Mute note
Otros videos de esta canción
    399 exhibiciones
      • ½ Tono
      • A
      • Bb
      • B
      • C
      • Db
      • D
      • Eb
      • E
      • F
      • F#
      • G
      • Ab
    • Agregar a la lista

    Afinación de cifrado

    Afinador online

      OK