Cifra Club

Bethlehem

Declan Mckenna

Cifrado: Principal (guitarra y guitarra eléctrica)
tono: E
[Verso]

E|---------------------------------------------------------------------------|
B|---------------------------------------------------------------------------|
G|---------------------------------------------------------------------------|
D|---7---7---7---7----2---2---2---2------------------------------------------|
A|--6-6-6-6-6-6-6-6--4-4-4-4-2-2-2-2-----------------------------------------|
E|-7---7---7---7----5---5---0---0--------------------------------------------|

E|--------------------------------0-0-0--------------------------------------|
B|--------------------------------0-0-0--------------------------------------|
G|--------------------------------1-2-1--------------------------------------|
D|-------6---4---2----------------2-2-2--------------------------------------|
A|------8-8-6-6-4-4------0h4h0----2-2-2--------------------------------------|
E|-----9---7---5-----2-4-------0--0-0-0--------------------------------------|

E|---------------------------------------------------------------------------|
B|---------------------------------------------------------------------------|
G|---------------------------------------------------------------------------|
D|---7---7---7---7----2---2---2---2------------------------------------------|
A|--6-6-6-6-6-6-6-6--4-4-4-4-2-2-2-2-----------------------------------------|
E|-7---7---7---7----5---5---0---0--------------------------------------------|

E|--------------------------------0-0-0--------------------------------------|
B|--------------------------------0-0-0--------------------------------------|
G|--------------------------------1-2-1--------------------------------------|
D|-------6---4---2----------------2-2-2--------------------------------------|
A|------8-8-6-6-4-4------0h4h0----2-2-2--------------------------------------|
E|-----9---7---5-----2-4-------0--0-0-0--------------------------------------|

[Pré-Refrão]

E|------------------------------------------------------------------|
B|------------------------------------------------------------------|
G|------------------------------------------------------------------|
D|---7---2---6---4---2---2-------7----------------------------------|
A|--6-6-4-4-8-8-6-6-4-4-4-4----6------------------------------------|
E|-7---5---9---7---5---5-----7--------------------------------------|

[Refrão]

B7             E        C#m
Because I'm in Bethlehem
B        A         E     C#m B
I've got a seat in heaven
A              E      C#m B
And though I'm heaven sent

E|---------------------------------------0-0-0----------------------------|
B|---------------------------------------0-0-0----------------------------|
G|---------------------------------------1-2-1----------------------------|
D|---------------7---2---1---------------2-2-2----------------------------|
A|--------------6-6-4-4-3-3-----0h4h0----2-2-2----------------------------|
E|-------------7---5---4----2-4-------0--0-0-0----------------------------|

E C#m B A
B7

[Riff da ponte]

E|------------------------------------------------------------------------|
B|--9--7--9--10--7h9p7--5--5h7p5--4----5--4--5--7--4h5p4--2--2h4p2--0-----|
G|---------------------------------------------------------------------2--|
D|------------------------------------------------------------------------|
A|------------------------------------------------------------------------|
E|------------------------------------------------------------------------|
Composición de Declan McKenna
Colaboración y revisión:
  • Daniel Victor
70 vistas
    • ½ Tono
    • A
    • Bb
    • B
    • C
    • Db
    • D
    • Eb
    • E
    • F
    • F#
    • G
    • Ab
  • Agregar a la lista

    0 comentarios

    Ver todos los comentarios

    ¿Lograste tocar?

    0 Tocaron 0 Aún no

    ¡Graba un video tocando Bethlehem y envíanoslo!

    00:00 / 00:00
    Outros vídeos desta música
    Repetir Calidad Automático
    Outros vídeos desta música
    00:00 / 00:00
    Automático
    OK