Cifra Club

Humongous

Declan Mckenna

Cifrado: Principal (guitarra y guitarra eléctrica)
tono: C
 Dm          Fmaj7         C             G
Don't tag me along to your show, to your broadcast
 Am     F           Em
I know, I'm good at letting go
 Dm             Fmaj7             C              G  E7
And then tag me along with your rules, with your promise
 Am               Em               F                   Em
I swear you spend too much time on your phone and your hair
     Dm
Do you care?

 G       Am         Em
I'm big, humongous, enormous and small
             F  G    Am               Em
And it's not fair; That I am nothing and nobody's there
       F
Do you care?

 G       Am      Em
I'm big, humongous, enormous and small
             F  G    Am               Em
And it's not fair; That I am nothing and nobody's there
       
Do you care?

 Dm           Fmaj7    C                        G
Don't tell me I'm not, I'm not smart or I'm not worthy
 Am     F                   Em
I know, I couldn't let that go
 Dm            F
And then tag me along
         C                   G E7
With your hate and with your envy
 Am      Em              Fm7      Em
I swear, to god I cannot take you anywhere
       Dm
Do you care?

 G       Am         Em
I'm big, humongous, enormous and small
             F  G    Am               Em
And it's not fair That I am nothing and nobody's there
       F
Do you care?

 G       Am      Em
I'm big, humongous, enormous and small
             F  G    Am               Em
And it's not fair that I am nothing and nobody's there
       
Do you care?

  Dm        G              Am             Em
E|----------12--10--------------------------------|
B|----10-----------12-13-12s10-10-10s9-9-9s10-----|  
G|-12---------------------------------------------|
D|------------------------------------------------|
A|------------------------------------------------|
E|------------------------------------------------|

   F         G             Am     Em
E|-13-12-10---------------------------------------|  
B|-------------13-12-13-12-10s9-10-9--------------|  
G|------------------------------------------------|
D|------------------------------------------------|
A|------------------------------------------------|
E|------------------------------------------------|

  F         G              Am            Em
E|-----10-----------------------------------------|
B|-10------12-13-12-10s9-9--9s10------------------|  
G|------------------------------------------------|
D|------------------------------------------------|
A|------------------------------------------------|
E|------------------------------------------------|

  F         G              Am             Em
E|----13-12-10-----------------13-10--------------|
B|-10-----------12--13-12--10---------------------| 
G|------------------------------------------------|
D|------------------------------------------------|
A|------------------------------------------------|
E|------------------------------------------------|

       Dm
Do you care?

 G       Am         Em
I'm big, humongous, enormous and small
             F  G    Am               Em
And it's not fair; That I am nothing and nobody's there
       
Do you care?

( Dm  G  Am  Em )
( Dm  G  Am  Em )

       Dm
Do you care

( Dm  G  Am  Em )
( Dm  G  Am )

E|-------12-10--------------------------------12-10-------13--12-------|
B|----10-------13-12-12s10-----------------10-------13-12------- 12----|  (2x)
G|-10-----------------------12-12-10-9--10-----------------------------|
D|---------------------------------------------------------------------|
A|---------------------------------------------------------------------|
E|---------------------------------------------------------------------|

F             G          C   Bm     F
Don't speak, don't be so broken and weak
          G
I'm gonna throw up
C    Bm    F
Well baby, when will you grow up?
F           G       C   Bm   F
You've been such a joke this week
F
You think you're funny
F
When you're talking all loud and your nose is all runny

E|-------12-10--------------------------------12-10-------13--12-------|
B|----10-------13-12-12s10-----------------10-------13-12--------12----|   (2x)
G|-10-----------------------12-12-10-9--10-----------------------------|
D|---------------------------------------------------------------------|
A|---------------------------------------------------------------------|
E|---------------------------------------------------------------------|
Composición de Declan McKenna
Colaboración y revisión:
  • Daniel Fonseca
  • Gabriela Zimmermam
379 vistas
    • ½ Tono
    • A
    • Bb
    • B
    • C
    • Db
    • D
    • Eb
    • E
    • F
    • F#
    • G
    • Ab
  • Agregar a la lista

    0 comentarios

    Ver todos los comentarios

    ¿Lograste tocar?

    6 Tocaron 0 Aún no

    ¡Graba un video tocando Humongous y envíanoslo!

    00:00 / 00:00
    Outros vídeos desta música
    Repetir Calidad Automático
    Outros vídeos desta música
    00:00 / 00:00
    Automático
    OK