Cifra Club

A Touch Away

Deep Purple

Tablatura: Principal (guitarra)
Tom: C
E|----------0--------------------|---------0------------3-----------|
B|-------6--6----------3h5p3-----|------6--6--------------3---------|
G|----------0------5-7-------4-0-|---------0------5-5-7-----5p4-2p0-|
D|-----7---------5---------------|----7---------5-------------------|
A|---8---------8-----------------|--8---------8---------------------|
E|-------------------------------|----------------------------------|

    F           G          Am          F              G
E|----------------------------------|-------------------------------|
B|----------------------------------|---------------------3h5p3-----|
G|--------2p0---------4p0---------5-|-------2p0---------0-------4p0-|
D|------3-----------5-----------7---|-----3-----------5-------------|
A|----3-----------5-----------7-----|---3-----------5---------------|
E|--1---------1-3---------3-5-------|-1---------1-3-----------------|


E|----------------------------------|-----------------------3-------|
B|----------------------------------|-----------------------3-------|
G|--------2p0---------4p0---------5-|-------2p0---------0---0-------|
D|------3-----------5-----------7---|-----3-----------5-----5-------|
A|----3-----------5-----------7-----|---3-----------5-------5-------|
E|--1---------1-3---------3-5-------|-1---------1-3-----------------|
reproducciones 188
Acordes para:

    0 comentarios

    mostrar más comentarios

    ¿Conseguiste tocar?

    0 tocaron 0 aún no

    ¡Graba un vídeo tocando A Touch Away y envianoslo!

    00:00 / 00:00
    outros vídeos desta música
    repetir qualidade Automático
    Outros vídeos desta música
    00:00 / 00:00
    Automático
    OK