Cifra Club

Aprenda

Black Night

Deep Purple

Tablatura: Principal (guitarra)
Tom: Bm
[Introdução 2x]

[Riff Principal]
E|-----------------------------------------------------|
B|-----------------------------------------------------|
G|-----------------------------------------------------|
D|------5----------------5----7-5-------------5--------|
A|-/7-----7-5------5-7------7-----7--5-7--------7------|
E|--------------7--------------------------------------|


Primeira Parte:

Parte 1 de 6
E|-----------------------------------------------------|
B|-----------------------------------------------------|
G|-----------------------------------------------------|
D|-----------------------------------------------------|
A|-5-7--7--7--7-5-7--7--7--7-5-7--7--7--7--------------|
E|-----------------------------------------------------|

E|-----------------------------------------------------|
B|-----------------------------------------------------|
G|-----------------------------------------------------|
D|-----------------------------------------------------|
A|-5-7--7--7--7-5-7--7--7--7-5-7--7--7--7--------------|
E|-----------------------------------------------------|

Parte 2 de 6
E|-----------------------------------------------------|
B|-----------------------------------------------------|
G|-----------------------------------------------------|
D|-----------------------------------------------------|
A|-7---5h7p5---5------5--7/9---7-5-7---5---------------|
E|-----------7-----7-----------------------7-----------|

Parte 3 de 6
E|-----------------------------------------------------|
B|-----------------------------------------------------|
G|-----------------------------------------------------|
D|------7--5h7p5h7p...------5-------5--3h5p3-----------|
A|-----------------------7-----------------------------|
E|-5--5------------------------3--3--------------------|

Parte 4 de 6
E|--------------------------------12----------12-------|
B|-------8----8-10--8~---------12----------12----15b17-|
G|-4/7-9---9-------------14b16-------14b16-------------|
D|-----------------------------------------------------|
A|-----------------------------------------------------|
E|-----------------------------------------------------|

Parte 5 de 6
E|-----------------------------------------------------|
B|-----------------------------------------------------|
G|------------------------------4----------------------|
D|------7--5------5-------5--3--4----------------------|
A|-------------7----------------2----------------------|
E|-5--5--------------3--3------------------------------|

Parte 6 de 6 (2x)
E|-----------------------------------------------------|
B|-----------------------------------------------------|
G|-----------------------------------------------------|
D|------5----------------5----7-5-------------5--------|
A|-/7-----7-5------5-7------7-----7--5-7--------7------|
E|--------------7--------------------------------------|

Black night
Is not right
I don't feel
So bright
I don't care
To sit tight
Maybe I'll find on the way
Down the line that I'm free
Free to be me
Black night is a long way from home


[Segunda Parte]

Parte 1 de 5
E|-----------------------------------------------------|
B|-----------------------------------------------------|
G|-----------------------------------------------------|
D|-----------------------------------------------------|
A|-5-7--7--7--7-5-7--7--7--7-5-7--7--7--7--------------|
E|-----------------------------------------------------|

E|-----------------------------------------------------|
B|-----------------------------------------------------|
G|-----------------------------------------------------|
D|-----------------------------------------------------|
A|-5-7--7--7--7-5-7--7--7--7-5-7--7--7--7--------------|
E|-----------------------------------------------------|

Parte 2 de 5
E|-----------------------------------------------------|
B|-----------------------------------------------------|
G|-----------------------------------------------------|
D|-----------------------------------------------------|
A|-7---5h7p5---5------5--7/9---7-5-7---5---------------|
E|-----------7-----7-----------------------7-----------|

Parte 3 de 5
E|-----------------------------------------------------|
B|-----------------------------------------------------|
G|-----------------------------------------------------|
D|------7--5h7p5------5-------5--3---------------------|
A|-----------------7-----------------------------------|
E|-5--5------------------3--3--------------------------|

Parte 4 de 5
E|-----------------------------------------------------|
B|-----------------------------------------------------|
G|--------12-14b16--14b16~---b16r14p12----14p12----12~-|
D|-----12------------------------------14-------14-----|
A|-/14-------------------------------------------------|
E|-----------------------------------------------------|

Parte 5 de 5
E|-----------------------------------------------------|
B|-----------------------------------------------------|
G|------------------------------4----------------------|
D|------7--5------5-------5--3--4----------------------|
A|-------------7----------------2----------------------|
E|-5--5--------------3--3------------------------------|

I don't need
A dark tree
I don't want
A rough sea
I can't feel
I can't see
Maybe I'll find on the way
Down the line that I'm free
Free to be me
Black night is a long way from home


[Base do Solo 4x]
   Em
E|-----------------------------------------------------|
B|-----------------------------------------------------|
G|-----------------------------------------------------|
D|-----------------------------------------------------|
A|-5-7----------5-7----------5-7-----------------------|
E|------0--0--0------0--0--0------0--0--0--------------|


[Passagem]
Parte 1 de 2
E|-----------------------------------------------------|
B|-----------------------------------------------------|
G|-----------------------------------------------------|
D|-----------------------------------------------------|
A|-/7---5h7p5---5------5--7/9---7-5-7---5--------------|
E|------------7-----7------------------------7---------|

Parte 2 de 2 (4x)
   Am
E|-----------------------------------------------------|
B|-----------------------------------------------------|
G|-----------------------------------------------------|
D|-----------------------------------------------------|
A|-5-7----------5-7----------5-7-----------------------|
E|------0--0--0------0--0--0------0--0--0--------------|


[Solo de Bateria 2x]
E|-----------------------------------------------------|
B|-----------------------------------------------------|
G|-----------------------------------------------------|
D|------5----------------5----7-5-------------5--------|
A|-/7-----7-5------5-7------7-----7--5-7--------7------|
E|--------------7--------------------------------------|


[Terceira Parte]

E|-----------------------------------------------------|
B|-----------------------------------------------------|
G|-----------------------------------------------------|
D|-----------------------------------------------------|
A|-5-7--7--7--7-5-7--7--7--7-5-7--7--7--7--------------|
E|-----------------------------------------------------|

E|-----------------------------------------------------|
B|-----------------------------------------------------|
G|-----------------------------------------------------|
D|-----------------------------------------------------|
A|-5-7--7--7--7-5-7--7--7--7-5-7--7--7--7--------------|
E|-----------------------------------------------------|

E|-----------------------------------------------------|
B|-----------------------------------------------------|
G|-----------------------------------------------------|
D|-----------------------------------------------------|
A|-7---5h7p5---5------5--7/9---7-5-7---5---------------|
E|-----------7-----7-----------------------7-----------|

E|-----------------------------------------------------|
B|-----------------------------------------------------|
G|-----------------------------------------------------|
D|------7--5------5-------5--3-----3-------------------|
A|-------------7-----------------5---------------------|
E|-5--5--------------3--3------------------------------|

E|-----------------------------------------------------|
B|-----------------------------------------------------|
G|-----------12--12---------12-15p12-14-14p12-------14\|
D|-----12-14--------14~-/14-------------------12-14----|
A|-/14-------------------------------------------------|
E|-----------------------------------------------------|

E|-----------------------------------------------------|
B|-----------------------------------------------------|
G|----------------------------------4------------------|
D|------7--5------5-------5--3----3-4------------------|
A|-------------7----------------5---2------------------|
E|-5--5--------------3--3------------------------------|

Black night
Black night
I don't need
Black night
I can't see
Dark night
Maybe I'll find on the way
Down the line that I'm free
Free to be me
Black night is a long way from home

[Solo]
   Em
E|-----------------------------------------------------|
B|-----------------------------------------------------|
G|-----------------------------------------------------|
D|-----------------------------------------------------|
A|-5-7--7--7--7-5-7--7--7--7-5-7--7--7--7--------------|
E|-----------------------------------------------------|
Compositor Ian Gillan / Ian Paice / Jon Lord / Ritchie Blackmore / Roger Glover
Colaboración y revision:
  • Vinícius Dias
1.594 reproducciones
    • ½ Tom
    • Am
    • Bbm
    • Bm
    • Cm
    • C#m
    • Dm
    • Ebm
    • Em
    • Fm
    • F#m
    • Gm
    • G#m
  • Adicionar à lista

    0 comentarios

    Mostrar mais comentários

    ¿Conseguiste tocar?

    5 Tocaron 0 Ainda não

    Grave um vídeo tocando Black Night e mande pra gente!

    00:00 / 00:00
    outros vídeos desta música
    repetir qualidade Automático
    Outros vídeos desta música
    00:00 / 00:00
    Automático
    Capítulos
    • Tocando a música
    • Apresentação / Equipamentos
    • Tocando Introdução
    • Riff Principal
    • Dicas Primeira Parte
    • Tocando Primeira Parte
    • TAB - Primeira Parte - Parte 1 de 6
    • TAB - Primeira Parte - Parte 2 de 6
    • TAB - Primeira Parte - Parte 3 de 6
    • TAB - Primeira Parte - Parte 4 de 6
    • TAB - Primeira Parte - Parte 5 de 6
    • TAB - Primeira Parte - Parte 6 de 6
    • Dicas Segunda Parte
    • Tocando Segunda Parte
    • TAB - Segunda Parte
    • Dicas da música
    • Tocando Solo - Improviso
    • Base do Solo (Passagem)
    • Base do Solo (Teclado)
    • Base do Solo (Bateria)
    • Dicas de improviso
    • Encerramento
    OK