Cifra Club

Burn

Deep Purple

Tablatura: Principal (guitarra)
Tom: G
Gtr I, II, III (E A D G B E) - 'Ritchie Blackmore dist electric'
Gtr IV (E A D G B E) - '(Jon Lord) Organ arr. for guitar'

Intro
    Q=196                                              1.,2.,3.
   4/4
    Gtr I
    E E E E Q.   E   E E E E +Q   Q    E E E E Q.   E   E E E E +H
||-----------------|-----------------|----------------|-----------------||
||o----------------|-----------------|----------------|----------------o||
||----3s2---5------|-3s2---5-(5)--3--|---3s2---5------|-3s2p0-----------||
||----3s2---5------|-3s2---5-(5)--3--|---3s2---5------|-3s2p0-3-(3)-----||
||o----------------|-----------------|----------------|-------3-(3)----o||
||--3-----3------3-|-----3-----------|-3-----3------3-|-----------------||
 |-Rhy Fig 1                                              end Rhy Fig 1-|

                      Verse 1, 3 & 5
  4.
                   $$
                          ~~~~~~~~~
  E E E E +E  E Q      Q  H.
|------------------||-------------|
|------------------||o------------|
|-3s2p0------------||-------------|
|-3s2p0-3-(3)------||-----5-------|
|-------3-(3)------||o------------|
|-------------1-2--||--3----------|
                    |-Rhy Fig 2

 
 ~~~~~~~~~~~~          ~~~~~~~~~~~~~~~~~~~~~
  +H     +E  E Q    Q  H.        +H     +E  E Q
|-----------------|------------|-------------------|
|-----------------|------------|-------------------|
|-----------------|------------|-------------------|
|-(5)----(5)------|----3-------|-(3)----(3)--------|
|-----------------|------------|-------------------|
|------------3-2--|-1----------|------------1-2----|


     ~~~~~~~~~~~~~~
  Q  H.        +W           Q.   E +Q   Q    +H.      +Q
|------------|------------|----------------|------------------|
|------------|------------|----------------|------------------|
|------------|------------|-------------3--|-(3)------(3)b5---|
|----5-------|-(5)--------|------5-(5)-----|------------------|
|------------|------------|-3--------------|------------------|
|-3----------|------------|----------------|------------------|
            end Rhy Fig 2-|

  Rhy Fig 1


 Verse 2, 4 & 6
  Rhy Fig 2


                                           Chorus
              ~~~~~~~~~
  Q.   E +Q   Q    +W           W           Q.   E +E  E E E
|----------------|------------|----------||-------------------|
|----------------|------------|----------||-------------------|
|----------------|------------|----------||-------------------|
|----------------|------------|----------||------5-(5)-3-3p0--|
|-1-----------3--|-(3)--------|----------||-------------------|
|------1-(1)-----|------------|----------||-3-----------------|


  ~~~~~~~~~                        ~
  H    +E  E E E   Q.   E +H       W
|----------------|---------------|----------|
|----------------|---------------|----------|
|----------------|---------------|-3--------|
|-5----(5)-3-5p3-|-1----5-(5)----|----------|
|----------------|---------------|----------|
|----------------|---------------|----------|


                      To Dbl. Coda
  Q.   E +Q   Q    H      H
|----------------|-----------------||
|----------------|-----------------||
|-------------3--|-3b5----3b5------||
|------5-(5)-----|-----------------||
|-3--------------|-----------------||
|----------------|-----------------||


 Rhy Fig 1 - 1st 6 bars


                  1.                    2.
  E E E E Q.   E   E E E E +E  E Q      W
|----------------|-------------------||------||
|----------------|------------------o||------||
|---3s2---5------|-3s2p0-------------||------||
|---3s2---5------|-3s2p0-3-(3)-------||------||
|----------------|-------3-(3)------o||------||
|-3-----3------3-|-------------1-2---||------||


 Bridge
  $
  Gtrs II, III
   ~~~    ~        ~~~          ~~~~~~~~~~~~~~~
   Q.   E H       +H.      Q    W          +H.      Q
|---------------|-------------|----------|-------------|
|---------------|-------------|----------|-------------|
|-/7----7-7-----|-(7)------5--|-3--------|-(3)---------|
|------------7--|-------------|----------|-------------|
|-/5------------|-------------|----------|-------------|
|---------------|-------------|----------|-------------|
   H.        Q


                                             ~       ~~~~~~~~~~~~
  Q.   E +Q.   E   +Q.   E +Q.   E   +Q.   E H       E  Q.   +Q   Q
|----------------|-----------------|--------------|--3s=5----(5)-----|
|--------------6-|-(6)---5-(5)-----|--------------|------------------|
|-5----7-(7)-----|---------------2-|-(2)---2-2----|-(2)--------------|
|--------------3-|-(3)---2-(2)-----|--------------|------------------|
|-3----5-(5)-----|---------------0-|-(0)----------|------------------|
|----------------|-----------------|--------------|------------------|
  Q.   E +Q.   E   +Q.   E +Q.   E   +H      H      +W


        ~~~~~~~~~                  ~~~~~~~~~~~~~~~~~~~~~
  Q  E  E +Q   Q    +H.      Q     W                +W
|-----------------|-------------|-----------------|-------------|
|-6--6--6-(6)--6--|-(6)------6--|-----------------|-------------|
|----3------------|--3----------|-/7-----------7--|-(7)---------|
|-----------------|-------------|-------7-(7)-----|-------------|
|-1---------------|-------------|-/5--------------|-------------|
|-----------------|-------------|-----------------|-------------|
  Q  H.              W             Q.   E +Q   Q     H.      Q


                                                   To Coda
  ~~
  Q.   E +Q   Q    +H..        E   +W           +W
|----------------|---------------|------------|------------||
|-------------3--|-(3)---------5-|-(5)--------|-(5)--------||
|-3----1-(1)-----|--3---------/5-|-(5)--------|-(5)--------||
|----------------|-------------5-|-(5)--------|-(5)--------||
|----------------|---------------|------------|------------||
|----------------|---------------|------------|------------||
  W                 H..        E


                                                       1.
    Gtr I
    E E E E Q.   E   E E E E +Q   Q    E E E E Q.   E   E E E E +H
||-----------------|-----------------|----------------|-----------------||
||o----------------|-----------------|----------------|----------------o||
||----3s2---5------|-3s2---5-(5)--3--|---3s2---5------|-3s2p0-----------||
||----3s2---5------|-3s2---5-(5)--3--|---3s2---5------|-3s2p0-3-(3)-----||
||o----------------|-----------------|----------------|-------3-(3)----o||
||--3-----3------3-|-----3-----------|-3-----3------3-|-----------------||


                      Guitar Solo
  2.
                            ~~~~~~               ~
  E E E E +E  E E E    Q.   E +Q   E E   E E E.S H      S S E E E E E E S S
|-------------------||-----------------|--------------|----------------------|
|-------------------||-----------------|--------------|----------------------|
|-3s2p0-------------||-3---------------|---3----------|----------------------|
|-3s2p0-3-(3)---3-5-||------5-(5)--3---|-----5p3-5----|-3h5-3-0-3-2-0-2-3p2--|
|-------3-(3)-------||---------------0-|--------------|----------------------|
|-------------3-----||-----------------|-3------------|----------------------|


            ~~              ~~~~~~~
  E E E E E Q.     E Q     +E  +Q.   +E
|----------------|-----------------------|
|----------------|-----------------------|
|---------3------|---5b7===(7)-(7)---(7)-|
|-0-3-5-3---5----|-----------------------|
|----------------|-----------------------|
|----------------|-----------------------|


  +E   a  +Q.   +Q   E E   S S S S E S S E E S S S S
|------------------------|---------------------------|
|------------------------|---------------------------|
|-(7)-(7)r(5)---(5)--3-5-|-5h6p5p3---5p3---3-5p3---3-|
|------------------------|---------5-----5-------5---|
|------------------------|---------------------------|
|------------------------|---------------------------|


                                                 ~~~~~~~~~~
  S S S S S S S S S S S S E E   E   E E E Q     +Q     +Q   E E E Q    E
|-----------------------------|-------3--------------|------3----------3--|
|-----------------------------|-----3---6-6b8===(8)--|-(8)----3-6---------|
|-5p3---3-5p3---3-5p3---3-5-5-|-5b7------------------|------------5b7-----|
|-----5-------5-------5-------|----------------------|--------------------|
|-----------------------------|----------------------|--------------------|
|-----------------------------|----------------------|--------------------|


                               ~~~~~~~~~
  E S S E E E S S E S S   +E  +Q.   +Q.   E
|-----------------------|-------------------|
|-3---------------------|-------------------|
|---6p5p3---5p3---3-5p3-|-(3)-(3)---(3)-----|
|---------5-----5-------|-----------------5s|
|-----------------------|-------------------|
|-----------------------|-------------------|


   E  E  S  S  E  S  S  S  S  S  S  S  S
|----------------------------------------|
|----------------------------------------|
|----10-12p10----10-12p10----10-12p10----|
|-12----------12----------12----------12-|
|----------------------------------------|
|----------------------------------------|


   S  S  S  S  S  S  S  S  E  S  S  E  E
|----------------------------------------|
|----------------------------------------|
|-10-12p10----10-12p10----10-12p10----10-|
|----------12----------12----------12----|
|----------------------------------------|
|----------------------------------------|


                  ~~                            ~~~~~~~~
   E  E  Q        Q   S  S  E    E  S  S  +E   +E   +Q   Q
|-----------------------------|-----------------------------|
|-------11b11.5---------------|-----------------------------|
|-11-12----------12--10h12p10-|-10-12p10-(10)-(10)-(10)--0--|
|-----------------------------|-----------------------------|
|-----------------------------|-----------------------------|
|-----------------------------|-----------------------------|


   S  S S S  S  S S S  S  S S S  S  S S S
|-----------------------------------------|
|-----------------------------------------|
|-12-15-0-0-10-12-0-0-12-15-0-0-10-12-0-0-|
|-----------------------------------------|
|-----------------------------------------|
|-----------------------------------------|


   S  S S S  S  S S S  S  S S S  S  S S S    S  S S S  S  S S S  S  S S S  S  S S S
|-----------------------------------------|-----------------------------------------|
|-----------------------------------------|-----------------------------------------|
|-12-15-0-0-10-12-0-0-12-15-0-0-10-12-0-0-|-12-15-0-0-10-12-0-0-12-15-0-0-10-12-0-0-|
|-----------------------------------------|-----------------------------------------|
|-----------------------------------------|-----------------------------------------|
|-----------------------------------------|-----------------------------------------|


   S  S S S  S  S S S S  S S S  S  S S S
|----------------------------------------|
|----------------------------------------|
|-12-15-0-0-10-12-0-0-8-10-0-0-10-12-0-0-|
|----------------------------------------|
|----------------------------------------|
|----------------------------------------|


   S  S S S  S  S S S S  S S S  S  S S S   S  S S S S S S S S S S S E E
|----------------------------------------|--------------------------------|
|----------------------------------------|--------------------------------|
|-12-15-0-0-10-12-0-0-8-10-0-0-10-12-0-0-|-8-10-8-0-7-8-7-0-5-7-5-0-5-3---|
|----------------------------------------|--------------------------------|
|----------------------------------------|--------------------------------|
|----------------------------------------|--------------------------------|


  H       +E  E E E   H    +E  E S E.
|-------------------|-----------------|
|-------------------|-----------------|
|-5b7=====(7)-7-7-7-|-7r===(5)-5-5p3--|
|-------------------|-----------------|
|-------------------|-----------------|
|-------------------|-----------------|


  E S S E E S S S S E E    E E E E E     E E E
|-----------------------|----------------------||
|-----------------------|----------------------||
|-2-3p2-----------------|----5-----5b5.5---5-5-||
|-------5-3-5p3s2p0-3-5-|-/7---7-5-------7-----||
|-----------------------|----------------------||
|-----------------------|----------------------||


    Gtrs II, III
     E  E  E  E  E  E  E  E
||--10-------10-------10----|
||o-11-11----11-11----11-11-|
||-----12-12----12-12----12-|
||--------12-------12-------|
||o-------------------------|
||--------------------------|


   E  E  E  E  E  E  E  E    E  E  E  E  E  E  E  E
|-11-------11-------11----|--8--------8--------8----|
|-13-13----13-13----13-13-|-10-10----10-10----10-10-|
|----12-12----12-12----12-|----10-10----10-10----10-|
|-------13-------13-------|-------10-------10-------|
|-------------------------|-------------------------|
|-------------------------|-------------------------|


   E  E  E  E  E  E  E  E    E  E  E  E  E  E  E  E   E E  E E E  E E E
|-10-------10-------10----|-------------------------|-8------8------8---|
|-11-11----11-11----11-11-|-11-------11-------11----|-8-8----8-8----8-8-|
|----10-10----10-10----10-|----12-------12-------12-|---8--8---8--8---8-|
|-------12-------12-------|-------13-------13-------|-----10-----10-----|
|-------------------------|-------------------------|-------------------|
|-------------------------|-------------------------|-------------------|


  1.                                                   2.
  Gtr II
   E  Q     E  Q     E  E    E  Q   E  E  E   E  E      E  Q   E  Q     E  E
|-------------------------|-------------------------||-----------------------|
|-10-------10-------10----|----10-----10-----------o||-10-----10-11----10-11-|
|----11-------11-------11-|--------11----11-----11--||----11-----------------|
|-------------------------|------------------12-----||-----------------------|
|-------------------------|------------------------o||-----------------------|
|-------------------------|-------------------------||-----------------------|
|
| Gtr III
|  E  E  E  E  E  Q     E    E  Q   E  E  Q.            E  Q   E  E  Q     E
|-------------------------|-------------------------||-----------------------|
|-------------------------|------------------------o||-----------12-------12-|
|-11----------12-------11-|-13-----13-14------------||-11-----11-------------|
|----12-12-12----12-------|----12--------12---------||----12--------12-------|
|-------------------------|------------------------o||-----------------------|
|-------------------------|-------------------------||-----------------------|


   E  Q   E  E  E  E  E    E  Q   E  Q     E  E    E  Q   E  E  E  E  E
|-----------------------|-----------------------|-----------------------|
|----10-----10----------|-10-----10-------10----|----10-----10----------|
|--------11----11----11-|----11-----11-------11-|--------11----11----11-|
|-----------------12----|-----------------------|-----------------12----|
|-----------------------|-----------------------|-----------------------|
|-----------------------|-----------------------|-----------------------|
|
|  E  Q   E  E  Q     E    E  Q   E  E  Q     E    E  Q   E  H
|-----------------------|-----------------------|-----------------------|
|-----------------------|--------------------12-|-----------------------|
|-13-----13-14-------14-|-11-----11-12----------|-13-----13-14----------|
|----12--------12-------|----12--------12-------|----12-----------------|
|-----------------------|-----------------------|-----------------------|
|-----------------------|-----------------------|-----------------------|


  Gtrs II, III
   E  E  E  E  E  E  E  E    E  E  E  E  E  E  E  E
|-10-------10-11-------11-|-10-------10-11-------11-|
|-11-11----11-13-13----13-|-11-11----11-13-13----13-|
|----12-12-------12-12----|----12-12-------12-12----|
|-------12----------13----|-------12----------13----|
|-------------------------|-------------------------|
|-------------------------|-------------------------|


   E E E  E E E  E E   E  E E E  q   q
|--------------------|-------------------||
|-10-x-x-11-x-x-12-x-|-x-13-x-x-14--15---||
|--------------------|-------------------||
|--------------------|-------------------||
|--------------------|-------------------||
|--------------------|-------------------||


  Gtr I
  E E E E Q.   E   E E E E +Q   Q    E E E E Q.   E   E E E E +H
|----------------|-----------------|----------------|----------------|
|----------------|-----------------|----------------|----------------|
|---3s2---5------|-3s2---5-(5)--3--|---3s2---5------|-3s2p0----------|
|---3s2---5------|-3s2---5-(5)--3--|---3s2---5------|-3s2p0-3-(3)----|
|----------------|-----------------|----------------|-------3-(3)----|
|-3-----3------3-|-----3-----------|-3-----3------3-|----------------|


  E E E E Q.   E   E E E E +E  E Q    E E E E Q.   E   E E E E +H
|----------------|------------------|----------------|----------------||
|----------------|------------------|----------------|----------------||
|---3s2---5------|-3s2p0-5-(5)---3--|---3s2---5------|-3s2p0----------||
|---3s2---5------|-3s2p0-5-(5)---3--|---3s2---5------|-3s2p0-3-(3)----||
|----------------|------------------|----------------|-------3-(3)----||
|-3-----3------3-|-------------3----|-3-----3------3-|----------------||


                                                        D.S. al Coda
    E E E E Q.   E   E E E E +Q   Q    E E E E Q.   E   E E E E +H
||-----------------|-----------------|----------------|-----------------||
||o----------------|-----------------|----------------|----------------o||
||----3s2---5------|-3s2---5-(5)--3--|---3s2---5------|-3s2p0-----------||
||----3s2---5------|-3s2---5-(5)--3--|---3s2---5------|-3s2p0-3-(3)-----||
||o----------------|-----------------|----------------|-------3-(3)----o||
||--3-----3------3-|-----3-----------|-3-----3------3-|-----------------||


    &
     W           +W            W           +W      4x
||------------|-------------|-----------|----------||
||o-----------|-------------|-10--------|-(10)----o||
||--12--------|-(12)--------|-10--------|-(10)-----||
||--12--------|-(12)--------|-10--------|-(10)-----||
||o-----------|-------------|-----------|---------o||
||------------|-------------|-----------|----------||


    H.      Q    W          H.      Q    W
||-------------|----------|------------|-------||
||o------------|----------|------------|-3----o||
||-------------|-7--------|------------|-5-----||
||----------7--|----------|---------5--|-------||
||o-5----------|----------|-3----------|------o||
||-------------|----------|------------|-------||


    Gtr IV
     E  E  E  E  E  E  E  E
||--------------------------|
||o-15h18-15----------------|
||-----------17-15----15-17-|
||-----------------17-------|
||o-------------------------|
||--------------------------|


   E  E  E  E  E  E  E  E    E  E  E  E  E  E  E  E
|-------------------------|-------------------------|
|-16h18-16-15----------16-|-13h16-13-------------13-|
|-------------17----17----|----------15-14----14----|
|----------------17-------|----------------15-------|
|-------------------------|-------------------------|
|-------------------------|-------------------------|


   S  S  S  S  E  E  E  E  S  S  E
|----------11-13-11----------13-16-|
|-11h13h15----------15-11-15-------|
|----------------------------------|
|----------------------------------|
|----------------------------------|
|----------------------------------|


   E  E  E  E  E  E  E  E    E E  E  E  E  E  E  E
|-15-13----13S15-18-17-15-|-17-5-17-18-20-15--------|
|-------16----------------|------------------16-----|
|-------------------------|---------------------17--|
|-------------------------|-------------------------|
|-------------------------|-------------------------|
|-------------------------|-------------------------|


   E  E  E  E  E  E  E  E
|-------------------------|
|-18----------20----------|
|----19-17-19----19-17-19-|
|-------------------------|
|-------------------------|
|-------------------------|


 1.                                 2.
   E  E  E  E  S  S  S  S  E  E      E  E  E  E  E  E  E  E
|-17-----------------------------||-17----------18----------|
|-------------------------------o||-------------------------|
|----19-20-17-19h20p19p17-19-20--||----19-17-19----19-17-19-|
|--------------------------------||-------------------------|
|-------------------------------o||-------------------------|
|--------------------------------||-------------------------|


   E  E  E  E  E  E  E  E    E  E  E  E  E  E  E  E
|-20----------22----------|-22----20----18----17----|
|-------------------------|-------------------------|
|----19-17-19----19-17-19-|----19----19----19----19-|
|-------------------------|-------------------------|
|-------------------------|-------------------------|
|-------------------------|-------------------------|


   S S S S  S  S  S  S  S S S S  S  S  S  S
|-10p6-----------10-15-11p8-----------11-15-|
|------8------11------------8------13-------|
|--------7-12-----------------8-12----------|
|-------------------------------------------|
|-------------------------------------------|
|-------------------------------------------|


   S S S S  S  S  S  S  S S S S  S  S  S  S    S  S  S  S  Q   S  S  S  S  Q
|-10p6-----------10-15-11p8-----------11-15-|-14h15p14p11-----14h15p14p11------|
|------8------11------------8------13-------|-------------15--------------15---|
|--------7-12-----------------8-12----------|----------------------------------|
|-------------------------------------------|----------------------------------|
|-------------------------------------------|----------------------------------|
|-------------------------------------------|----------------------------------|


                                                  Gt
   S  S  S  S  S  S  S  S  S  S  S  S  S  S  S  S
|-20p19p18p17-16p15p14p13-------------------------||
|-------------------------17p16p15p14-------------||
|-------------------------------------17p16p15p14-||
|-------------------------------------------------||
|-------------------------------------------------||
|-------------------------------------------------||


 r I
  E E E E Q.   E   E E E E +H
|----------------|----------------|
|----------------|----------------|
|---3s2---5------|-3s2---5-(5)----|
|---3s2---5------|-3s2---5-(5)----|
|----------------|----------------|
|-3-----3------3-|-----3----------|


  E E E E Q.   E   E E E E +H       E E E E Q.   E
|----------------|----------------|----------------|
|----------------|----------------|----------------|
|---3s2---5------|-3s2p0----------|---3s2---5------|
|---3s2---5------|-3s2p0-3-(3)----|---3s2---5------|
|----------------|-------3-(3)----|----------------|
|-3-----3------3-|----------------|-3-----3------3-|


                                D.S.S. al Dbl. Coda
  E E E E +Q   Q    E E E E Q.   E   E E E E +H
|-----------------|----------------|----------------||
|-----------------|----------------|----------------||
|-3s2---5-(5)--3--|---3s2---5------|-3s2p0----------||
|-3s2---5-(5)--3--|---3s2---5------|-3s2p0-3-(3)----||
|-----------------|----------------|-------3-(3)----||
|-----3-----------|-3-----3------3-|----------------||


    &&
    E E E E Q.   E   E E E E +H       E E E E Q.   E   E E E E +H
||-----------------|----------------|----------------|-----------------||
||o----------------|----------------|----------------|----------------o||
||----3s2---5------|-3s2---5-(5)----|---3s2---5------|-3s2p0-----------||
||----3s2---5------|-3s2---5-(5)----|---3s2---5------|-3s2p0-3-(3)-----||
||o----------------|----------------|-------3--------|-------3-(3)----o||
||--3-----3------3-|-----3----------|-3-----3------3-|-----------------||


                                 Gtrs II, III
  Q.   E +H       Q.   E +Q   Q    Q.   E +H       Q.   E +H
|---------------|----------------|---------------|---------------|
|---------------|----------------|---------------|---------------|
|---------------|----------------|---------------|---------------|
|---------------|----------------|---------------|-5----4-(4)----|
|---------------|-3----1-(1)-----|-6----5-(5)----|---------------|
|-3----1-(1)----|----------------|---------------|---------------|

                                  Free Time
                                   ~~~
                                        |-3-| |-3-| |-3-|
  Q.   E +H       Q.    E +H       Q    E E E E E E E E E
|---------------|----------------|------3---------3--------|
|---------------|----------------|-6b8----2-6---3----------|
|-3----2-(2)----|-5b7---5-(5)----|-3----------5-----6p5p3--|
|---------------|----------------|-------------------------|
|---------------|----------------|-------------------------|
|---------------|----------------|-------------------------|
                                   W


                                        Gtr I
                                                        ~
  S S S S S S S S S S S S S S S S S S S   S S S S e S S H      W
|---------------------------------------:--------------------:------*|
|---------------------------------------:--------------------:------*|
|-5-3---3-5p3---5p3-5-5-3---5-3---------:--------------------:------*|
|-----5-------5-----------5-----5p3-5p3-:-5-3-----------5----:------*|
|---------------------------------------:-----5-3-1-4-5------:------*|
|---------------------------------------:--------------------:------*|
reproducciones 2.659
Acordes para:

    0 comentarios

    mostrar más comentarios

    ¿Conseguiste tocar?

    5 tocaron 2 aún no

    ¡Graba un vídeo tocando Burn y envianoslo!

    00:00 / 00:00
    outros vídeos desta música
    repetir qualidade Automático
    Outros vídeos desta música
    00:00 / 00:00
    Automático
    OK