Cifra Club

Cascade (solo)

Deep Purple

Tablatura: Principal (guitarra)
Tom: E
E|--12-8---------8-10-8---------8-12-8------|--10-7-------7-8-7-------7-10-7---
B|-------10---10--------10---10--------10---|-------8---8-------8---8--------8-
G|----------9--------------9--------------9-|---------7-----------7------------
D|------------------------------------------|----------------------------------
A|------------------------------------------|----------------------------------
E|------------------------------------------|----------------------------------

E|---|--10-5-------5-7-5-------5-10-5-----|--8-5-------5-7-5-------5-8-5-----|-
B|---|-------7---7-------7---7--------7---|------6---6-------6---6-------6---|-
G|-7-|---------7-----------7------------7-|--------5-----------5-----------5-|-
D|---|------------------------------------|----------------------------------|-
A|---|------------------------------------|----------------------------------|-
E|---|------------------------------------|----------------------------------|-

E|--8-5-------5-7-5-------5-8-5-----|--7-3-------3-5-3-------3-7-3-----|--5-2---
B|------5---5-------5---5-------5---|------3---3-------3---3-------3---|------3-
G|--------5-----------5-----------5-|--------4-----------4-----------4-|--------
D|----------------------------------|----------------------------------|--------
A|----------------------------------|----------------------------------|--------
E|----------------------------------|----------------------------------|--------

E|-----10-5-------|--14-10---------17-14---------|--17-12----------12-15-12----
B|----------7-----|--------10------------15------|--------13----13----------13-
G|-2----------7---|-----------11------------14---|-----------14----------------
D|----------------|------------------------------|-----------------------------
A|----------------|------------------------------|-----------------------------
E|----------------|------------------------------|-----------------------------

E|-------12-17-12-------|--15-10----------10-12-10----------10-15-10-------|--14-
B|----13----------13----|--------12----12----------12----12----------12----|-----
G|-14----------------14-|-----------12----------------12----------------12-|-----
D|----------------------|--------------------------------------------------|-----
A|----------------------|--------------------------------------------------|-----
E|----------------------|--------------------------------------------------|-----

E|-10----------10-12-10----------10-14-10-------|--13-8----------8-10-8----------
B|----10----10----------10----10----------10----|-------10----10--------10----10-
G|-------11----------------11----------------11-|----------10--------------10----
D|----------------------------------------------|--------------------------------
A|----------------------------------------------|--------------------------------
E|----------------------------------------------|--------------------------------

E|-8-13-8-------|--12-8---------8-10-8---------8-12-8------|--10-7-------7-8-7-
B|--------10----|-------10---10--------10---10--------10---|-------8---8-------
G|-----------10-|----------9--------------9--------------9-|---------7---------
D|--------------|------------------------------------------|-------------------
A|--------------|------------------------------------------|-------------------
E|--------------|------------------------------------------|-------------------

E|-------7-10-7-----|--10-5-------14-10---------|--17-14---------22-17---------
B|-8---8--------8---|-------7-----------10------|--------15------------19------
G|---7------------7-|---------7------------11---|-----------14------------19---
D|------------------|---------------------------|------------------------------
A|------------------|---------------------------|------------------------------
E|------------------|---------------------------|------------------------------

E-|--11-8-------16-11---------|--17-13---------20-17---------|-----------------
B-|-------9-----------13------|--------13------------18------|-15b17------15--r
G-|---------8------------13---|-----------14------------17---|-----------------
D-|---------------------------|------------------------------|-----------------
A-|---------------------------|------------------------------|-----------------
E-|---------------------------|------------------------------|-----------------

E|-------12--------------------|------------------------17---\----|---------15b17-
B-13-15----15-13--------------|------------------------17---\----|---------------
G|----------------14-12-{14}~--|------------------------16b17\----|---------------
D|-----------------------------|------------------14-14-----------|---------------
A|-----------------------------|------12-13-14/16-----------------|---------------
E|-----------------------------|----------------------------------|--/12-14-------

E|--17-----------------------------------|----------------------------------------
B|-----13b14------------------{13}-------|-13-12----------------------------------
G|-----------14-12-{14}-14-12------{14}\-|-------14-12----------------------------
D|---------------------------------------|-------------14-13-12----10/11----------
A|---------------------------------------|----------------------14-------12-------
E|---------------------------------------|----------------------------------12-11-

E|---------------------|-------------------------9--------|---------------------
B|---------------------|-------------------12b14----------|-7b8-----5-----------
G|---------------------|----{11}b13---11-9---------{9}----|---------------4-4---
D|---------------------|-------------------------------11\|---------------------
A|----12~---------(12)\|----------------------------------|-----4-4---4-4-----4-
E-10------------------|----------------------------------|---------------------

E|-------------------|----------15b17-------------21-16-19-16-------16-------16-
B|-------------------|----------------------------------------20-19----19-20----
G|---6-----4b--------|----------------------------------------------------------
D|------------4b-2---|----------------------------------------------------------
A-4---4-2---------4\|----------------------14/16-------------------------------
E|-------------------|---/12-12-------------------------------------------------

E|-18-16-------------------------------------|-
B|-------17-16-------------------------19b21-|-
G|-------------18-16----19b21-18-16-18-------|-
D|-------------------18----------------------|-
A|-------------------------------------------|-
E|-------------------------------------------|-
reproducciones 61
Acordes para:
    Colaboración y revision:
    • Júnior Bado

    0 comentarios

    mostrar más comentarios

    ¿Conseguiste tocar?

    0 tocaron 0 aún no

    ¡Graba un vídeo tocando Cascade (solo) y envianoslo!

    00:00 / 00:00
    outros vídeos desta música
    repetir qualidade Automático
    Outros vídeos desta música
    00:00 / 00:00
    Automático
    OK