Cifra Club

Aprenda

Child in time

Deep Purple

Tablatura: Tablatura (guitarra)
Tom: C#m
                   *               *               *
E|---------------|---------------|----------------|----------------------|
B|---------------|---------------|----------------|----------------------|
G|---------------|---------------|----------------|----------------------|
D|---------------|---------------|----------------|----------------------|
A|----------5--5-|-7--------5--5-|-7---------3--3-|-5------------5--5--7-|
E|----------3--3-|-5--------3--3-|-5---------1--1-|-3------------3--3--5-|


                   *               *                    *                    *
E|---------------|---------------|----------------|--------------------|-----------|
B|---------------|---------------|----------------|--------------------|-----------|
G|---------------|---------------|----------------|--------------------|-----------|
D|---------------|---------------|----------------|--------------------|-----------|
A|----------5--5-|-7---7----5--5-|-7---7-----3--3-|-5---5---------5--5-|-7---7-----|
E|----------3--3-|-5---5----3--3-|-5---5-----1--1-|-3---3---------3--3-|-5---5-----|


   >        >          >                      >        >          >
E|-------------------|----------------------|-------------------|----------------------|
B|-------------------|----------------------|-------------------|----------------------|
G|-------------------|----------------------|-------------------|----------------------|
D|-7--7-7-7-7--7-7-7-|-7--7-7-7-7-7-7-5-5-5-|-7--7-7-7-7--7-7-7-|-7--7-7-7-7-7-7-7-7-7-|
A|-7--7-7-7-7--7-7-7-|-7--7-7-7-7-7-7-5-5-5-|-7--7-7-7-7--7-7-7-|-7--7-7-7-8-8-8-8-8-8-|
E|-------------------|----------------------|-------------------|----------------------|

   >            >              >                                >        >          >   *
E|---------------------------|--------------------------------|-------------------|--------|
B|---------------------------|--------------------------------|-------------------|--------|
G|---------------------------|--------------------------------|-------------------|--------|
D|-9---9--9--9--9---9--9--9--|-9---9--9--9--9--9--9--9--9--9--|-7--7-7-7-7--7-7-7-|-7---7--|
A|-10--10-10-10-10--10-10-10-|-10--10-10-10-10-10-10-10-10-10-|-7--7-7-7-7--7-7-7-|-7---7--|
E|---------------------------|--------------------------------|-------------------|--------|


  b1/2 b1/2b1/2                            >        b1/2            b1
E|--------------|-------------|----------------|-------------------|------------------|
B|--------------|-------------|----------------|----16--15-13------|------------------|
G|-14--14--14~~~~~~~~~~~~~~~~~~~~---------17---|--------------16-14~14----------------|
D|--------------|-------------|----------------|-------------------|------------------|
A|--------------|-------------|----------------|-------------------|------------------|
E|--------------|-------------|----------------|-------------------|------------------|

                              b1/2
E|--------------------------|----/\-----------------------------|----------------------|------|
B|--------15-17-16-15-13-15-|-15/  \~~~~~~--13-15-12-13---------|----------------------|------|
G|-----14-------------------|------------------------------14-12|-13-------------------|------|
D|--------------------------|-----------------------------------|-----14-13-12---------|------|
A|--------------------------|-----------------------------------|--------------15-12-15~~~~~~~|
E|--------------------------|-----------------------------------|----------------------|------|
                                                   b1
E|---------------------|-----------|--------------------|-----|-------------------------------|
B|---------------------|-----------|--------------------|-----|------------15--13p15h13-------|
G|---------------------|-----------|-----------14--12~~~~~~~~~|---14-16-17--------------16-14-|
D|---------------------|-----------|--12/\-12-----------|-----|-------------------------------|
A|~~-12-------------12~~~~~~~~~~~~~~--------------------|-----|-------------------------------|
E|------15-12-10-12----|-----------|--------------------|-----|-------------------------------|

E|-----------------------|----------------------------|---------------------|-----|-----|-----|
B|-----------------------|----------------------------|---------------------|-----|-----|-----|
G|-16-17-19p17h16-14~~~~~|-14-12----------------------|-------------11/12/13|14~~~~~~~~~~~~~~~|
D|-----------------------|------------14-12----12-----|---------------------|-----|-----|-----|
A|-----------------------|------------------15-----10-|-12~~~~~~~~~---------|-----|---- |-----|
E|-----------------------|----------------------------|---------------------|-----|-----|-----|


      b1/2
E|--------------------------------------|-------------------------------------|-----------------------------------|
B|--------------------------------------|-------------------------------------|-----------------------------------|
G|--------------------------------------|-------------------------------------|-----------------------------------|
D|-12-12--14-14-14-14-14-14-14-14-14-14-|-14-14-14-14-14-14-14-14-14-14-14-14\|12-10-12-12-----------12-12-----13-|
A|--------------------------------------|-------------------------------------|------------15--12-10-------12-----|
E|--------------------------------------|-------------------------------------|-----------------------------------|

   b1                                      >
E|--------------------------------------|----------------------------------------|------------------------|
B|--------------------------------------|----------------------------------------|------------------------|
G|--------------------------------------|----------------------------------------|------------------------|
D|-12/14-14-14-14-14-14-14-14-14-14-----|-14-14-14-14-14-14-13-12----------------|-12-12------------------|
A|--------------------------------------|-------------------------15-17-15-16-12-|-------15--12-12-12-15--|
E|----------------------------------13--|----------------------------------------|------------------------|

E|---------------------------------------|---------------------------------------|----------------------------------------|
B|---------------------------------------|---------------------------------------|----------------------------------------|
G|---------------------------------------|---------------------------------------|----------------------------------------|
D|-------------------12/11/10-12/11/10---|-------13-10-12-10---------------------|-------------------12-11-10-12-11-10----|
A|-12-12-12-12-12-12---------------------|-12-12-------------12-12-12-12---------|-12-12-12-12-12-12-------------------12-|
E|-------------------------------------12|---------------------------------------|----------------------------------------|
                          >
E|-----------------------------|---------------------------------------|----------------------------|---------------------------|
B|-----------------------------|---------------------------------------|----------------------------|---------------------------|
G|-----------------------------|---------------------------------------|----------------------------|---------------------------|
D|-------12----10-10--11/14----|---------------------------------------|----------------------------|---------------------------|
A|-12-12----12-----------------|-12-12-12-12-12-12-14-15-12------------|-8--------------------------|-------5-3-5-7-5-7-10-7-10-|
E|-----------------------------|----------------------------15-12-10-8-|---10-8-5-8-10--3-0-3-5-3-5-|-8-5-8---------------------|

E|-------------------------------------------|---------------------------------|-----------------------------------|
B|-------------------------------------------|---------------------------------|-----------------------------------|
G|-------------------------------------------|-9-------9-------9-------9-------|-9-------10-------9-------10-------|
D|-------------------12-------12-12-11-10-12-|---12-10---12-10---12-10---12-10-|---12-10----12-10---12-10----12-10-|
A|-12-10-12-15-12-15----15-12----------------|---------------------------------|-----------------------------------|
E|-------------------------------------------|---------------------------------|-----------------------------------|

E|-------------------------------|---5-3-0-5--8-5-3/4/5---|-5--5-5-5-5-8-9-10-8--|-10~~~~-10~~~~~-10~~~~~~~-10~~~~~~-10~|~~~~~--|
B|-------------------------------|------------------------|----------------------|--------------------------------------|-------|
G|-9-------9-------9-7p9h7-5-4-2-|-4----------------------|----------------------|--------------------------------------|-------|
D|---12-10---12-10---------------|------------------------|----------------------|--------------------------------------|-------|
A|-------------------------------|------------------------|----------------------|--------------------------------------|-------|
E|-------------------------------|------------------------|----------------------|--------------------------------------|-------|

e|~~~~~~~~--10-8----|-10-8----10-8-----------------|----------------------------|---------------------------|------------------------|
B|---------------10-|------10------10-8------------|----------------------------|---------------------------|------------------------|
G|------------------|--------------------9-8-7-5-7-|-5p7h5-----7-7-5----8-7-5-7-|-5p7h5---------7-5---8-7-5-|-7-7-5------------------|
D|------------------|------------------------------|-------7-5-------7----------|-------7-7-7-7-----7-------|-------7-7-5-7-7-7-7-7--|
A|------------------|------------------------------|----------------------------|---------------------------|------------------------|
E|------------------|------------------------------|----------------------------|---------------------------|------------------------|
                                    b1/2---------------------------------------------------------------------------------------------|
E|-------------------------|------------------------------------------|---------------------|
B|-------------------------|------------------------------------------|---------------------|
G|-5-7-7-5-7-7-5-7-7-7-7-7-|-12/13/14--14-14-14-14-14-----------------|---------------------|
D|-------------------------|----------------------------11/sliiiiiidee|0--------------------|
A|-------------------------|----------------------------11/sliiiiiidee|0--------------------|
E|-------------------------|------------------------------------------|0--------------------|

E|-----------------------------|-----------------------------------|-------------------------------------|--------------------------|
B|-----------------------------|-----------------------------------|-------------------------------------|--------------------------|
G|-----------------------------|-----------------------------------|-14-12----14-12----14-12----14-12----|-14-12----14-12----14-12------|-----------------------------------|
D|-----------------------------|-12-10--12-10-12-10-12-14-14-14-14-|-------14-------14-------14-------14-|-------14-------14--------|
A|-12---12--12-12-12-12-12--12-|-----------------------------------|-------------------------------------|--------------------------||

E|-------------------------------------|-------------------------------------|-------------------------------------|
B|-------------------------------------|-------------------------------------|-------------------------------------|
G|-21-17-14-21-17-14-21-17-14-21-17-14-|-21-17-14-21-17-14-21-17-14-20-17-14-|-21-17-14-21-17-14-21-17-14-21-17-14-|
D|-------------------------------------|-------------------------------------|-------------------------------------|
A|-------------------------------------|-------------------------------------|-------------------------------------|
E|-------------------------------------|-------------------------------------|-------------------------------------|

E|-------------------------------------|-------------------------------------|----------------|-----|---------------|
B|-------------------------------------|-17~~---17-~~--17~~---17~~--17~~~-16-|-17--17--17--17~|~~~~~|~~~~~~~~~~~----|
G|-21-17-14-21-17-14-20-17-14-17-19-17-|-------------------------------------|----------------|-----|---------------|
D|-------------------------------------|-------------------------------------|----------------|-----|---------------|
A|-------------------------------------|-------------------------------------|----------------|-----|---------------|
E|-------------------------------------|-------------------------------------|----------------|-----|---------------|

E|-------------|15-------------15---------|15-------------15-------------|---------------------|-----------------------------|
B|----------17-|------------17------------|------------17----------------|---------------------|-----------------------------|
G|-13/14-17----|---13/14-17------13/14-17-|---13/14-17-------12/14-14-14-|-12--12-----14-12----|-----------------------------|
D|-------------|--------------------------|------------------------------|------------------14-|-12--------------------------|
A|-------------|--------------------------|------------------------------|---------------------|----15-15-17-15-12-15-----16-|
E|-------------|--------------------------|------------------------------|---------------------|-----------------------------|

E|------------------------------------|---------------------------------|---------------------------|-------------------------------------|
B|------------------------------------|---------------------------------|---------------------------|-------------------------------------|
G|-------14-------14-------14-12------|-------14-------14-------14-12---|-------14-12--------14-12--|-------14-12--------14-12-12~~12~~~--|
D|-12-12----12-12----12-12---------13-|-12-12----12-12----12-12---------|-12-14--------12-14--------|-12-14--------12-14------------------|
A|------------------------------------|---------------------------------|---------------------------|-------------------------------------|
E|------------------------------------|---------------------------------|---------------------------|-------------------------------------|

E|----------|----------------|----------------------|----------------------------------|----------------------------------|-----------------------|
B|----------|---------13--15-|-15~~~-15~~~-15-13-15-|-15-13-15-15-13-------------------|----------------------------------|-----------------------|
G|~~-12~~~~~|~~-12-14--------|----------------------|----------------14-12-------------|----------------------------------|-----------------------|
D|----------|----------------|----------------------|----------------------14-10-12-12-|-12-10-------12----12-------------|-----------------------|
A|----------|----------------|----------------------|----------------------------------|-------12-12----12----15-12-12-15-|-15~~~~-12-15-12-12----|
E|----------|----------------|----------------------|----------------------------------|----------------------------------|--------------------15-|
                                                           b1
E|-------------------------------------|------------------------------|-------------------------------------|-------------------------------------|
B|-------------------------------------|------------------------------|-------------------------------------|-------------------------------------|
G|-------------------------------------|------------------------------|-------------------------------------|-------------------------------------|
D|----------------------------12-10----|-10---------------------------|-14-12-10-14-12-10-14-12-10-14-12-10-|-14-12-10-14-12-10-14-12-10-14-12-10-|
A|-12-12-12-12-12-12-15-12-12-------12-|----12-12-12-12-12-13--12-12--|-------------------------------------|-------------------------------------|
E|-------------------------------------|------------------------------|-------------------------------------|-------------------------------------|

E|-------------------------|---------------------|---------------------------|--------------------------------|-------------------------------------|
B|-------------------------|---------------------|---------------------------|--------------------------------|-------------------------------------|
G|-------------------------|---------------------|-12-----------12-----------|-12--------12-14----14-12----14-|-12----14-12----14-12----14-12-------|
D|-14--15--15--15--15--15--|-15~~~~~~~~-14-12-10-|-----14-12-10-----14-12-10-|-----12-14-------14-------14----|----14-------14-------14-------14-14-|
A|-------------------------|---------------------|---------------------------|--------------------------------|-------------------------------------|
E|-------------------------|---------------------|---------------------------|--------------------------------|-------------------------------------|

E|-------------------------------|---------------------------|------------------------------------|--------------------------|----------------------|
B|-------------------------------|---------------------------|------------------------------------|--------------------------|----------------------|
G|-14-12----14-12----14-12----12-|-14---14---14-12-14-12-----|-14-12------------------------------|-----------5--------------|----------------------|
D|-------14-------14-------14----|-----------------------14--|-------14-12------------------------|---7-5-------7-5--7-7-5---|---7-5----------------|
A|-------------------------------|---------------------------|-------------15-14-12---------------|-------7-0--------------7-|-0-----7-10-7-5-7-7---|
E|-------------------------------|---------------------------|----------------------15-12-12-10-8-|-5------------------------|----------------------|

         *      *      *  *              *          *          * *        * *
E|-------------------------------|-----------------------|-------------------------|
B|-------------------------------|-----------------------|-------------------------|
G|-------------------------------|-----------------------|-------------------------|
D|-7-5-------------------------5-|-7-5------6/7-5------6-|-7-5------6-7-5--------6-|
A|-----7-0------0------0--0------|-----7-0--------7-0----|-----0-0--------0-0------|
E|------------3------------------|-----------------------|-------------------------|


E|-------------------------------------|--------------------------------|
B|-------------------------------------|--------------------------------|
G|-14-17-21-14-17-21-14-17-21-19-17-16-|-14-17-21-14-17-21-19-17-16-14--|
D|-------------------------------------|--------------------------------| (ACELERANDO)
A|-------------------------------------|--------------------------------|
E|-------------------------------------|--------------------------------|


   *        *         *
E|--------|---------|---------|------------------------------------------------|
B|--------|---------|---------|------------------------------------------------|
G|--------|---------|---------|------------------------------------------------|
D|--------|---------|---------|------------------------------------------------|
A|-7------|-7-------|-7-------|-7--8--7--8--7--8--7--8--7--8--7--7-8-7-8-7-----|
E|-0------|-0-------|-0-------|------------------------------------------------|

E|--------------------------------------------|
B|--------------------------------------------|
G|--------------------------------------------|
D|--------------------------------------------|   (3x)
A|-7--8--7--8--7--8--7--8--7--8--7--7-8-7-8-7-|
E|--------------------------------------------|

E|---------|-----------|---------|---------------|-----------------|-----------------|
B|---------|-----------|---------|---------------|-----------------|-----------------|
G|---------|-----------|---------|---------------|-----------------|-----------------|
D|---------|-----------|---------|--------2------|-2---3---4---5---|-2---3---4---5---|
A|-4/7--7--|-4/7--7--7-|-5/7-----|-2------2------|-2---3---4---5---|-2---3---4---5---|
E|---------|-----------|---------|-0------0------|-----------------|-----------------|

E|-----------------------------|---------------------------------|
B|-----------------------------|---------------------------------
G|-----------------------------|---------------------------------|
D|-2--3--4--5--2-3-4-5-2-3-4-5-|-2-3-4-5-3-4-5-6-4-5-6-7-5-6-7-8-|
A|-2--3--4--5--2-3-4-5-2-3-4-5-|-2-3-4-5-3-4-5-6-4-5-6-7-5-6-7-8-|
E|-----------------------------|---------------------------------|


E|------------------------|
B|------------------------|
G|-2----------------------|
D|-2----------------------|
A|-0----------------------|
E|------------------------|
Compositor Ian Gillan / Ian Paice / Jon Lord / Ritchie Blackmore / Roger Glover
Colaboración y revision:
  • Lucas Oliveira
139 reproducciones
    • ½ Tom
    • Am
    • Bbm
    • Bm
    • Cm
    • C#m
    • Dm
    • Ebm
    • Em
    • Fm
    • F#m
    • Gm
    • G#m
  • Adicionar à lista

    0 comentarios

    Mostrar mais comentários

    ¿Conseguiste tocar?

    0 Tocaron 0 Ainda não

    Grave um vídeo tocando Child in time e mande pra gente!

    00:00 / 00:00
    outros vídeos desta música
    repetir qualidade Automático
    Outros vídeos desta música
    00:00 / 00:00
    Automático
    OK