Cifra Club

Aprenda

Child in time

Deep Purple

Tab de bajo: Estudio
|-----|-----|-----|-----|-----|-----|-----|-----|-----|
|-----|-----|-----|-----|-----|-----|-----|-----|-----|
|-----|-----|-----|-----|-----|-----|-----|-----|-----|
|-----|-----|-----|-----|-----|-----|-----|-----|-----|

|-----|-----|-----|-----|-----|-----|-----|-----|
|-----|-----|-----|-----|-----|-----|-----|-----|
|-----|-----|-----|-----|-----|-----|-----|-----|
|-----|-----|-----|-----|-----|-----|-----|-----|

|-----|-----|-----|-----|-----|-----|-----|-----|
|-----|-----|-----|-----|-----|-----|-----|-----|
|-----|-----|-----|-----|-----|-----|-----|-----|
|-----|-----|-----|-----|-----|-----|-----|-----|

         child...          see the...         drawn...          bad
|-----|-----------|-----|------------|-----|-----------|-----|------|
|-----|-----------|-----|------------|-----|-----------|-----|------|
|-----|-----------|-----|------------|-----|-----------|-----|------|
|-----|-----------|-----|------------|-----|-----------|-----|------|

         blind man          at the world          flying            toll
|-----|------------|-----|---------------|-----|---------|-----|-----------|-----|
|-----|------------|-----|---------------|-----|---------|-----|----5---5--|--7--|
|-----|------------|-----|---------------|-----|---------|-----|-----------|-----|
|-----|------------|-----|---------------|-----|---------|-----|-----------|-----|

   been..          bet...
|---------|-----|---------|---------------|-----|---------|-----|---------|-----|---------|
|--5---5--|--7--|--3---3--|--5-----5---5--|--7--|--5---5--|--7--|--5---5--|--7--|--3---3--|
|---------|-----|---------|---------------|-----|---------|-----|---------|-----|---------|
|---------|-----|---------|---------------|-----|---------|-----|---------|-----|---------|

         head           
|-----|---------|-----|---------|
|--5--|--5---5--|--7--|--5---5--|
|-----|---------|-----|---------|
|-----|---------|-----|---------|

(coda)
            woo                                    woo
|--------------------|--------------------|--------------------|--------------------|
|--7--------7--------|--7--------5-----5--|--7--------7--------|--7--------3-----3--|
|--------7--------7--|--------7-----5-----|--------7--------7--|--------7-----3-----|
|--------------------|--------------------|--------------------|--------------------|

         woo                                       woo
|--------------------|--------------------|--------------------|--------------------|
|--5--------5--------|--5--------5-----5--|--7--------7--------|--7--------5-----5--|
|--------5--------5--|--------5-----5-----|--------7--------7--|--------7-----5-----|
|--------------------|--------------------|--------------------|--------------------|

         woo                                       woo
|--------------------|--------------------|--------------------|--------------------|
|--7--------7--------|--7--------5-----5--|--7--------7--------|--7--------3-----3--|
|--------7--------7--|--------7-----5-----|--------7--------7--|--------7-----3-----|
|--------------------|--------------------|--------------------|--------------------|

         woo                                       woo
|--------------------|--------------------|--------------------|------------------|
|--5--------5--------|--5--------5-----5--|--7--------7--------|--7---------------|
|--------5--------5--|--------5-----5-----|--------7--------7--|------------------|
|--------------------|--------------------|--------------------|--------3------3--|

         ah                                  ah
|-----------------|-----------------|--------------|-----------------|
|-----------------|-----------------|--------------|-----------------|
|-----------------|-----------------|--------------|-----------------|
|--5-----5-----5--|--5-----3-----3--|--5-----5--5--|--5-----1-----1--|

|-----------|-----------------|-----------|------------------|
|-----------|-----------------|-----------|------------------|
|-----------|-----------------|-----------|------------------|
|--3-----3--|--3-----3-----3--|--5-----5--|--5-----3------3--|

         ah                                        ah
|--------------------|--------------------|--------------------|-----------------|
|--------------------|--------------------|--------------------|-----------------|
|--------------------|--------------------|--------------------|-----------------|
|--5-----5--5-----5--|--5-----5--3-----3--|--5-----5--5-----5--|--5-----1-----1--|

         ah                                   oh
|-----------------|------------------|-----------------|-----------------|
|-----------------|------------------|-----------------|-----------------|
|-----------------|------------------|-----------------|-----------------|
|--3-----3-----3--|--3------3-----3--|--5-----5-----5--|--5-----3-----3--|

         ah                                                    ah
|--------------------------|--------------------------|--------------------------|
|--------------------------|--------------------------|--------------------------|
|--------------------------|--------------------------|--------------------------|
|--5-----5--5--5-----5--5--|--5-----5--5--3--3--3--3--|--5-----5--5--5-----5--5--|

                                    ah
|--------------------------|--------------------------|--------------------------|
|--------------------------|--------------------------|--------------------------|
|--------------------------|--------------------------|--------------------------|
|--5-----5--5--1--1--1--1--|--3-----3--3--3-----3--3--|--3-----3--3--3--3--3--3--|

                                                                  ah
|--------------------------|--------------------------|--------------------------|
|--------------------------|--------------------------|--------------------------|
|--------------------------|--------------------------|--------------------------|
|--5--5--5--5--5-----5--5--|--5-----5--5--3--3--3--3--|--5--5--5--5--5--5--5--5--|

                                       ah
|--------------------------|--------------------------|--------------------------|
|--------------------------|--------------------------|--------------------------|
|--------------------------|--------------------------|--------------------------|
|--5--5--5--5--3--3--3--3--|--5--5--5--5--5--5--5--5--|--5--5--5--5--1--1--1--1--|

|--------------------------|
|--------------------------|
|--------------------------|
|--3--3--3--3--3--3--3--3--|

|--------------------------|--------------------------|--------------------------|
|--------------------------|--------------------------|--------------------------|
|--------------------------|--------------------------|--------------------------|
|--3--3--3--3--3--3--3--3--|--5--5--5--5--5--5--5--5--|--5--5--5--5--3--3--3--3--|

|----------------------------|---------------------------------|----------------------------|
|--7---7--7--7--7---7--7--7--|--7---7--7--7--5--5--5--5--5--5--|--7---7--7--7--7---7--7--7--|
|----------------------------|---------------------------------|----------------------------|
|----------------------------|---------------------------------|----------------------------|

|---------------------------------|----------------------------|---------------------------------|
|--7---7--7--7--3--3--3--3--3--3--|--5---5--5--5--5---5--5--5--|--5---5--5--5--5--5--5--5--5--5--|
|---------------------------------|----------------------------|---------------------------------|
|---------------------------------|----------------------------|---------------------------------|

|----------------------------|----------------------|------------|--------------------|
|--7---7--7--7--7---7--7--7--|--7---7---5-----------|--7---7--7--|--5---7---5---------|
|----------------------------|-------------7--5-----|------------|-------------7---5--|
|----------------------------|-------------------8--|------------|--------------------|

|------------|-----------------------------|----------------|-----------------------|
|--7---7--7--|-----------5--7--5-----------|--5---5--5------|-----------3--4--5--6--|
|------------|-----5--7-----------7--5-----|-------------2--|--3--4--5--------------|
|------------|--8-----------------------8--|----------------|-----------------------|

|--------9--7---------|--7-------------------------------|------------|-----------------------|
|--7-----------10--7--|-----10--7---5-----7--6-----------|--7---7--7--|-----------------------|
|---------------------|----------------7--------7--5-----|------------|--3--5--3--5--3--------|
|---------------------|-------------------------------8--|------------|-----------------5--3--|

|------------|--------------------------|------------|--------------------------|------------|
|--7---7--7--|--7--5--------------------|--5---5--5--|--------------3--4--5--6--|--7---7--7--|
|------------|--------7-----5-----------|------------|--2--3--4--5--------------|------------|
|------------|-----------8-----8--5--8--|------------|--------------------------|------------|

|---------------------|------------------------------|------------------------------|------------------------------|
|--7--5---------------|--7---7--7---7--7---7--7---7--|--7---7--7---7--7---7--7---7--|--7---7--7---7--7---7--7---7--|
|--------7--5---------|------------------------------|------------------------------|------------------------------|
|--------------8---5--|------------------------------|------------------------------|------------------------------|

|----------------------------------|------------------------------|--------------------------------------|
|--7--7--7--7---7--7--7--7--7---7--|--7---7--7---7--7---7--7---7--|--7--7--7--7--7--7--7--7--7--7--7--7--|
|----------------------------------|------------------------------|--------------------------------------|
|----------------------------------|------------------------------|--------------------------------------|

|------------------------------|--------------------------------------|
|--7---7--7---7--7---7--7---7--|--7--7--7--7--7--7--7--7--7--7--7--7--|
|------------------------------|--------------------------------------|
|------------------------------|--------------------------------------|

|------------------------------|--------------------|------------------------------|--------------------|
|--7---7--7---7--7---7--7---7--|--7---7--7---5---6--|--7---7--7---7--7---7--7---7--|--7---7--7---5---6--|
|------------------------------|--------------------|------------------------------|--------------------|
|------------------------------|--------------------|------------------------------|--------------------|

|------------------------------|--------------------|------------------------------|--------------------|
|--7---7--7---7--7---7--7---7--|--7---7--7---5---6--|--7---7--7---7--7---7--7---7--|--7---7--7---5---6--|
|------------------------------|--------------------|------------------------------|--------------------|
|------------------------------|--------------------|------------------------------|--------------------|

|------------------------------|--------------------|------------------------------|--------------------|
|--7---7--7---7--7---7--7---7--|--7---7--7---5---6--|--7---7--7---7--7---7--7---7--|--7---7--7---5---6--|
|------------------------------|--------------------|------------------------------|--------------------|
|------------------------------|--------------------|------------------------------|--------------------|

|------------------------------|--------------------|------------------------------|--------------------|
|--7---7--7---7--7---7--7---7--|--7---7--7---5---6--|--7---7--7---7--7---7--7---7--|--7---7--7---5---6--|
|------------------------------|--------------------|------------------------------|--------------------|
|------------------------------|--------------------|------------------------------|--------------------|

|------------------------------|--------------------|------------------------------|--------------------|
|--7---7--7---7--7---7--7---7--|--7---7--7---5---6--|--7---7--7---7--7---7--7---7--|--7---7--7---5---6--|
|------------------------------|--------------------|------------------------------|--------------------|
|------------------------------|--------------------|------------------------------|--------------------|

|------------------------------|--------------------|------------------------------|--------------------|
|--7---7--7---7--7---7--7---7--|--7---7--7---5---6--|--7---7--7---7--7---7--7---7--|--7---7--7---5---6--|
|------------------------------|--------------------|------------------------------|--------------------|
|------------------------------|--------------------|------------------------------|--------------------|

|------------------------------|--------------------|------------------------------|--------------------|
|--7---7--7---7--7---7--7---7--|--7---7--7---5---6--|--7---7--7---7--7---7--7---7--|--7---7--7---5---6--|
|------------------------------|--------------------|------------------------------|--------------------|
|------------------------------|--------------------|------------------------------|--------------------|

|------------------------------|--------------------|------------------------------|--------------------|
|--7---7--7---7--7---7--7---7--|--7---7--7---5---6--|--7---7--7---7--7---7--7---7--|--7---7--7---5---6--|
|------------------------------|--------------------|------------------------------|--------------------|
|------------------------------|--------------------|------------------------------|--------------------|

|------------------------------|-----------------------|------------------------------|-----------------------|
|--7---7--7---7--7---7--7---7--|-----------5-----6--6--|--7---7--7---7--7---7--7---7--|-----------5-----6--6--|
|------------------------------|-----5--7-----7--------|------------------------------|-----5--7-----7--------|
|------------------------------|--8--------------------|------------------------------|--8--------------------|

|------------------------------|-----------------------|------------------------------|-----------------------|
|--7---7--7---7--7---7--7---7--|-----------5-----6--6--|--7---7--7---7--7---7--7---7--|-----------5-----6--6--|
|------------------------------|-----5--7-----7--------|------------------------------|-----5--7-----7--------|
|------------------------------|--8--------------------|------------------------------|--8--------------------|

|------------------------------|-----------------------|------------------------------|-----------------------|
|--7---7--7---7--7---7--7---7--|-----------5-----6--6--|--7---7--7---7--7---7--7---7--|-----------5-----6--6--|
|------------------------------|-----5--7-----7--------|------------------------------|-----5--7-----7--------|
|------------------------------|--8--------------------|------------------------------|--8--------------------|

|------------------------------|-----------------------|------------------------------|-----------------------|
|--7---7--7---7--7---7--7---7--|-----------5-----6--6--|--7---7--7---7--7---7--7---7--|-----------5-----6--6--|
|------------------------------|-----5--7-----7--------|------------------------------|-----5--7-----7--------|
|------------------------------|--8--------------------|------------------------------|--8--------------------|

|------------------------------|-----------------------|------------------------------|-----------------------|
|--7---7--7---7--7---7--7---7--|-----------5-----6--6--|--7---7--7---7--7---7--7---7--|-----------5-----6--6--|
|------------------------------|-----5--7-----7--------|------------------------------|-----5--7-----7--------|
|------------------------------|--8--------------------|------------------------------|--8--------------------|

|------------------------------|-----------------------|------------------------------|-----------------------|
|--7---7--7---7--7---7--7---7--|-----------5-----6--6--|--7---7--7---7--7---7--7---7--|-----------5-----6--6--|
|------------------------------|-----5--7-----7--------|------------------------------|-----5--7-----7--------|
|------------------------------|--8--------------------|------------------------------|--8--------------------|

|------------------------------|-----------------------|------------------------------|-----------------------|
|--7---7--7---7--7---7--7---7--|-----------5-----6--6--|--7---7--7---7--7---7--7---7--|-----------5-----6--6--|
|------------------------------|-----5--7-----7--------|------------------------------|-----5--7-----7--------|
|------------------------------|--8--------------------|------------------------------|--8--------------------|

|------------------------------|-----------------------|------------------------------|-----------------------|
|--7---7--7---7--7---7--7---7--|-----------5-----6--6--|--7---7--7---7--7---7--7---7--|-----------5-----6--6--|
|------------------------------|-----5--7-----7--------|------------------------------|-----5--7-----7--------|
|------------------------------|--8--------------------|------------------------------|--8--------------------|

|-----------------------------|-----------------------------|-----------------------------|
|--7--7--7--7--7--7--7--5-----|--7--7--7--7--7--7--7--5-----|--7--7--7--7--7--7--7--5-----|
|--------------------------7--|--------------------------7--|--------------------------7--|
|-----------------------------|-----------------------------|-----------------------------|

|-----------------------------|-----------------------------|-----------------------------|
|--7--7--7--7--7--7--7--5-----|--7--7--7--7--7--7--7--5-----|--7--7--7--7--7--7--7--5-----|
|--------------------------7--|--------------------------7--|--------------------------7--|
|-----------------------------|-----------------------------|-----------------------------|

|-----------------------------|-----------------------------|-----------------------------|
|--7--7--7--7--7--7--7--5-----|--7--7--7--7--7--7--7--5-----|--7--7--7--7--7--7--7--5-----|
|--------------------------7--|--------------------------7--|--------------------------7--|
|-----------------------------|-----------------------------|-----------------------------|

|-----------------------------|-----------------------------|--------------------------|
|--7--7--7--7--7--7--7--5-----|--7--7--7--7--7--7--7--5-----|--7--7--7--7--7--5-----7--|
|--------------------------7--|--------------------------7--|--------------------7-----|
|-----------------------------|-----------------------------|--------------------------|

|-----|-----|-----|-----|
|-----|-----|-----|-----|
|-----|-----|-----|-----|
|-----|-----|-----|-----|

|-----|-----|-----|-----|
|-----|-----|-----|-----|
|-----|-----|-----|-----|
|-----|-----|-----|-----|

|---------|-------------|-----|---------|-------------|-------------|
|--5---5--|--7---5---5--|--7--|--3---3--|--5---5---5--|--7---5---5--|
|---------|-------------|-----|---------|-------------|-------------|
|---------|-------------|-----|---------|-------------|-------------|

|-------------|-------------|-----|-------------|--------------|
|*-7---5---5--|--7---3---3--|--5--|--7---5---5--|--7---5---5--*|
|*------------|-------------|-----|-------------|-------------*|
|-------------|-------------|-----|-------------|--------------|

 2______
|-------------|
|--7---5---5--|
|-------------|
|-------------|

|-----|-------------|-----|---------|-------------|-------------|-----|-------------|-----|
|--7--|--7---5---5--|--7--|--3---3--|--5---5---5--|--7---5---5--|--7--|--7---5---5--|--7--|
|-----|-------------|-----|---------|-------------|-------------|-----|-------------|-----|
|-----|-------------|-----|---------|-------------|-------------|-----|-------------|-----|

|-------------|-------------|-------------|
|--7---3---3--|--5---5---5--|--7---5---5--|
|-------------|-------------|-------------|
|-------------|-------------|-------------|

(coda)
|--------------------------|
|--------------------------|
|--------------------------|
|--3--3--3--3--3--3--3--3--|

|----------------|----------------|----------------|----------------|----------------|----------------|
|--2---2--2---2--|--2---2--2---2--|--2---2--2---2--|--2---2--2---2--|--2---2--2---2--|--2---2--2---2--|
|----------------|----------------|----------------|----------------|----------------|----------------|
|----------------|----------------|----------------|----------------|----------------|----------------|

|----------------|----------------|----------------|----------------|----------------|----------------|
|--2---2--2---2--|--2---2--2---2--|--2---2--2---2--|--2---2--2---2--|--2---2--2---2--|--2---2--2---2--|
|----------------|----------------|----------------|----------------|----------------|----------------|
|----------------|----------------|----------------|----------------|----------------|----------------|

|----------------|----------------|
|--2---2--2---2--|--2---2--2---2--|
|----------------|----------------|
|----------------|----------------|

|----------------|----------------|----------------|----------------|----------------|----------------|
|--2---2--2---2--|--2---2--2---2--|--2---2--2---2--|--2---2--2---2--|--2---2--2---2--|--2---2--2---2--|
|----------------|----------------|----------------|----------------|----------------|----------------|
|----------------|----------------|----------------|----------------|----------------|----------------|

|----------------|----------------|----------------|----------------|----------------|----------------|
|--2---2--2---2--|--2---2--2---2--|--2---2--3---3--|--4---4--5---5--|--2---2--3---3--|--4---4--5---5--|
|----------------|----------------|----------------|----------------|----------------|----------------|
|----------------|----------------|----------------|----------------|----------------|----------------|

|--------------------------|--------------------------|--------------------------|--------------------------|
|--2--3--4--5--3--4--5--6--|--2--3--4--5--3--4--5--6--|--2--3--4--5--3--4--5--6--|--2--3--4--5--3--4--5--6--|
|--------------------------|--------------------------|--------------------------|--------------------------|
|--------------------------|--------------------------|--------------------------|--------------------------|

|--------------------------|--------------------------|--------------------------|--------------------------|
|--2--3--4--5--3--4--5--6--|--2--3--4--5--3--4--5--6--|--2--3--4--5--3--4--5--6--|--2--3--4--5--3--4--5--6--|
|--------------------------|--------------------------|--------------------------|--------------------------|
|--------------------------|--------------------------|--------------------------|--------------------------|

|-----|-----|
|-----|-----|
|--0--|--0--|
|-----|-----|
Compositor Ian Gillan / Ian Paice / Jon Lord / Ritchie Blackmore / Roger Glover
Colaboración y revision:
  • valdir júnior
25 reproducciones

0 comentarios

Mostrar mais comentários

¿Conseguiste tocar?

0 Tocaron 0 Ainda não

Grave um vídeo tocando Child in time e mande pra gente!

00:00 / 00:00
outros vídeos desta música
repetir qualidade Automático
Outros vídeos desta música
00:00 / 00:00
Automático
OK