Cifra Club

Demon's Eye

Deep Purple

Tablatura: Principal (guitarra)
Tom: F
os riffs 1 e 2 são tocados durante toda a música! 
na realidade, perde um pouco a graça não tocar eles; não fica parecido! 


b = bend
/ = slide (ligadura)
~ = vibrato
p = pull off

obs  : notas abafadas!
obs2 : uso de powerchords recomendado!

Riff 1 




E|------------6--3-3-3-3-3-3-3-3--------------
A|--5-------5---------------------------------
D|----7b8-5-----------------------------------
G|-------------------------------------------- 
B|--------------------------------------------
e|--------------------------------------------

riff 2 

E|--------------------------------------------
A|------------6--3-3-3-3-3-3-3-3--------------
D|--5-------5---------------------------------
G|----7b8-5----------------------------------- 
B|--------------------------------------------
e|--------------------------------------------


4X RIFF 1 
2X RIFF 2
2X RIFF 1



refrão

E|-------------------------------------------1/3----------
A|-------------------------------------------3/5----------
D|--------------------------------------------------------
G|--8b10--10b12------10b12--8b10--5b7--3b5----------------
B|--6-----8----------8------6----3-----1------------------
e|--------------------------------------------------------

xxxxxxxxxxxxxxxxxxxxxxxxxxxxxxxxxxxxxxxxxxxxxxxxxxxxxxxxxxxxxxxxxxxxxxxxxxxxxxxxxxx




Gm

I don't mind just what you say. 
I never heard you, baby, never heard you anyway. 
C
I don't care what you do 
Gm
just so long as it ain't me and you. 
F     C     Gm
Sly, sly, sly like a demon's eye. 
Gm
Everything's good, I said, everything's fine. 
You don't know, don't know it's the end of your time. 
C
How does it feel to be turned away? 
Gm
I've known it, baby, almost every day. 

REFRÃO

F    C     Gm
Sly, sly, sly like a demon's eye. 


SOLO DE TECLADO 

riff 1 - 4X
riff 2 - 2X 
riff 1 - 2X    F  C


Gm 
I don't need you anymore, 
I don't want you, baby, hanging round my door. 
C
You slip and slide round my brain. 
Gm
You think you're so clever, yeah, but you know you're insane. 

REFRÃO

F     C    Gm
Sly, sly, sly like a demon's eye. 



SOLO (richie blackmore costuma usar muitas ligaduras e improvisa bastante sobre
        a pentatônica mas acho que a transcrição chega perto do solo original.) 

E|-------------------------------------------------------------------------------
A|--5----------------------------------------------------------------------------
D|---5----------5---5~---------------------5-------------------------------------
G|----3-5b7-3-5---3----5b7-5b7-5b7-5b7-5-3---3-5-5b7-5b7-------------------------
B|-------------------------------------------------------3-6b8-6b8-6b8x-3-3-6b8-3
e|-------------------------------------------------------------------------------...

   ---------------------------------------------------------------------------------
   ------------------------------------------------------------------------3/5------
   ----------------------------------------------------------------------------3-3/5
   -5b7-3-5p3--------------------------------------------------------12-------------
   -------------------------------------------13-11-13b15-1315-13-11----11----------
...------------6b8-6-3-6-8b10-8-6-13b15-13-15---------------------------------------...
           
   -----------------------------------------------------3~~|
   ------------------------------------------------5-4-3---|
   ------------------------3/5-----------------5-3---------|
   ------------------5/7--------5b7~~~x-5b7-3--------------|
   --6-6/8-----6/8-------6---------------------------------|
...---------8------6---------------------------------------|


Gm
I d-d-don't mind just what you say. 
I never heard you, baby, I never heard you anyway, no I didn't. 
C
Everything's good, everything's fine. 
Gm
You don't know it's the end of your time. 

REFRÃO

F     C    Gm
Sly, sly, sly like the demon's eye, 
like the demon's eye.
reproducciones 406
Acordes para:

    0 comentarios

    mostrar más comentarios

    ¿Conseguiste tocar?

    0 tocaron 0 aún no

    ¡Graba un vídeo tocando Demon's Eye y envianoslo!

    00:00 / 00:00
    outros vídeos desta música
    repetir qualidade Automático
    Outros vídeos desta música
    00:00 / 00:00
    Automático
    OK