Cifra Club

Highway Star

Deep Purple

Cifrado: Solo (guitarra y guitarra eléctrica)
tono: E
[Parte 1]

E|------------------------------------------|
B|--------13b15~----------13b15-------------|
G|-----10--------------10--------10~--------|
D|-/12-------------/12----------------------|
A|------------------------------------------|
E|------------------------------------------|

E|--------12b13--12-10----------------------|
B|-----10--------------13-------------------|
G|-/10--------------------10b----12-10b~----|
D|----------------------------12------------|
A|------------------------------------------|
E|------------------------------------------|


[Parte 2]

E|------------------------------------------|
B|--------13b15~----------13b15-------------|
G|-----10--------------10--------10~--------|
D|-/12-------------/12----------------------|
A|------------------------------------------|
E|------------------------------------------|

E|--------12b13--12-10----------------------|
B|-----10--------------10-------------------|
G|-/10--------------------10b----12-10b~----|
D|----------------------------12------------|
A|------------------------------------------|
E|------------------------------------------|


[Parte 3]

E|------------------------------------------|
B|-8b10--8b10~---8b10--8b10~----------------|
G|------------------------------------------|
D|------------------------------------------|
A|------------------------------------------|
E|------------------------------------------|

E|------------------------------------------|
B|-8b10--8-7-5------------------------------|
G|-------------5---7-5b---------------------|
D|---------------7--------7~----------------|
A|------------------------------------------|
E|------------------------------------------|


[Parte 4]

E|------------------------------------------|
B|------------------------------------------|
G|-2-5bp2---5bp2---5bp2-5bp2---5bp2---5bp2--|
D|--------5------5-----------5------5-------|
A|------------------------------------------|
E|------------------------------------------|

E|------------------------------------------|
B|-8b10--8b10--8b10-8b10-8b10-8b10-8b10-----|
G|------------------------------------------|
D|------------------------------------------|
A|------------------------------------------|
E|------------------------------------------|


[Parte 5]

E|------------------------------------------|
B|-13b15--13-10----------13b15--13-10-------|
G|--------------10--------------------10----|
D|-----------------12--------------------12-|
A|------------------------------------------|
E|------------------------------------------|

E|------------------------------------------|
B|-13b15--13-11----------13b15--13-11-------|
G|--------------12--------------------12----|
D|-----------------12--------------------12-|
A|------------------------------------------|
E|------------------------------------------|

E|------------------------------------------|
B|-15b17--15-13----------15b17--15-13-------|
G|--------------12--------------------12----|
D|-----------------14--------------------14-|
A|------------------------------------------|
E|------------------------------------------|

E|------------------------------------------|
B|-10-------11-------12-------13------------|
G|-12b14~---13b15~---14b16~---15b17~--------|
D|------------------------------------------|
A|------------------------------------------|
E|------------------------------------------|


[Parte 6]

E|------------------------------------------|
B|-13b15--13-10----------13b15--13-10-------|
G|--------------10--------------------10----|
D|-----------------12--------------------12-|
A|------------------------------------------|
E|------------------------------------------|

E|------------------------------------------|
B|-13b15-13b15--13-11-----------------------|
G|--------------------12--------------------|
D|-----------------------12-----------------|
A|------------------------------------------|
E|------------------------------------------|

E|------------------------------------------|
B|-13b15--13-11-----------------------------|
G|--------------12--------------------------|
D|-----------------12-----------------------|
A|------------------------------------------|
E|------------------------------------------|

E|------------------------------------------|
B|-15b17-15b17--15-13-----------------------|
G|--------------------12--------------------|
D|-----------------------14-----------------|
A|------------------------------------------|
E|------------------------------------------|

E|------------------------------------------|
B|-15b17--15-13-----------------------------|
G|--------------12--------------------------|
D|-----------------14-----------------------|
A|------------------------------------------|
E|------------------------------------------|

E|------------------------------------------|
B|-10-------11-------12-------13------------|
G|-12b14~---13b15~---14b16~---15b17~--------|
D|------------------------------------------|
A|------------------------------------------|
E|------------------------------------------|


[Parte 7]

E|-5-6-8-8-5-6-8-8-5-6-8-8-5-6-8-8----------|
B|------------------------------------------|
G|------------------------------------------|
D|------------------------------------------|
A|------------------------------------------|
E|------------------------------------------|

E|-5-6-8-8-5-6-8-8-5-6-8-8-5-6-8-8----------|
B|------------------------------------------|
G|------------------------------------------|
D|------------------------------------------|
A|------------------------------------------|
E|------------------------------------------|

E|-6-8-10-10-6-8-10-10-6-8-10-10-6-8-10-10--|
B|------------------------------------------|
G|------------------------------------------|
D|------------------------------------------|
A|------------------------------------------|
E|------------------------------------------|

E|-6-8-10-10-6-8-10-10-6-8-10-10-6-8-10-10--|
B|------------------------------------------|
G|------------------------------------------|
D|------------------------------------------|
A|------------------------------------------|
E|------------------------------------------|

E|-8-10-12-12-8-10-12-12--------------------|
B|------------------------------------------|
G|------------------------------------------|
D|------------------------------------------|
A|------------------------------------------|
E|------------------------------------------|

E|-8-10-12-12-8-10-12-12--------------------|
B|------------------------------------------|
G|------------------------------------------|
D|------------------------------------------|
A|------------------------------------------|
E|------------------------------------------|

E|-8-10-12-12-8-10-12-12--------------------|
B|------------------------------------------|
G|------------------------------------------|
D|------------------------------------------|
A|------------------------------------------|
E|------------------------------------------|

E|-8-10-12-12-12-12-12-12-------------------|
B|------------------------------------------|
G|------------------------------------------|
D|------------------------------------------|
A|------------------------------------------|
E|------------------------------------------|

E|-17-16-15-0-16-15-14-0-14-13-12-0-13-12-11|
B|------------------------------------------|
G|------------------------------------------|
D|------------------------------------------|
A|------------------------------------------|
E|------------------------------------------|

E|-0-12-11-10-0-11-10-9-0-10-9-8-0-9-8-7-0--|
B|------------------------------------------|
G|------------------------------------------|
D|------------------------------------------|
A|------------------------------------------|
E|------------------------------------------|


[Parte 8]

E|-5-6-8-8-5-6-8-8-5-6-8-8-5-6-8-8----------|
B|------------------------------------------|
G|------------------------------------------|
D|------------------------------------------|
A|------------------------------------------|
E|------------------------------------------|

E|-5-6-8-8-5-6-8-8-5-6-8-8-5-6-8-8----------|
B|------------------------------------------|
G|------------------------------------------|
D|------------------------------------------|
A|------------------------------------------|
E|------------------------------------------|

E|-6-8-10-10-6-8-10-10-6-8-10-10-6-8-10-10--|
B|------------------------------------------|
G|------------------------------------------|
D|------------------------------------------|
A|------------------------------------------|
E|------------------------------------------|

E|-6-8-10-10-6-8-10-10-6-8-10-10-6-8-10-10--|
B|------------------------------------------|
G|------------------------------------------|
D|------------------------------------------|
A|------------------------------------------|
E|------------------------------------------|

E|-8-10-12-12-8-10-12-12--------------------|
B|------------------------------------------|
G|------------------------------------------|
D|------------------------------------------|
A|------------------------------------------|
E|------------------------------------------|

E|-8-10-12-12-8-10-12-12--------------------|
B|------------------------------------------|
G|------------------------------------------|
D|------------------------------------------|
A|------------------------------------------|
E|------------------------------------------|

E|-8-10-12-12-8-10-12-12--------------------|
B|------------------------------------------|
G|------------------------------------------|
D|------------------------------------------|
A|------------------------------------------|
E|------------------------------------------|

E|-8-10-12-12-12-12-12-12-------------------|
B|------------------------------------------|
G|------------------------------------------|
D|------------------------------------------|
A|------------------------------------------|
E|------------------------------------------|

E|-17-16-15-0-16-15-14-0-14-13-12-0-13-12-11|
B|------------------------------------------|
G|------------------------------------------|
D|------------------------------------------|
A|------------------------------------------|
E|------------------------------------------|

E|-0-12-11-10-0-11-10-9-0-10-9-8-0-9-8-7-0--|
B|------------------------------------------|
G|------------------------------------------|
D|------------------------------------------|
A|------------------------------------------|
E|------------------------------------------|


[Parte 9]

E|-12-11-10-0-11-10-9-0-10-9-8-0-9-8-7-0----|
B|------------------------------------------|
G|------------------------------------------|
D|------------------------------------------|
A|------------------------------------------|
E|------------------------------------------|

E|-8-7-6-0-7-6-5-0-6-5-4-0-5-4-3-0-4-3-2-0--|
B|------------------------------------------|
G|------------------------------------------|
D|------------------------------------------|
A|------------------------------------------|
E|------------------------------------------|

E|-3-2-1-0-2-1-0-0-3-2-1-0-4-3-2-0-5-4-3-0--|
B|------------------------------------------|
G|------------------------------------------|
D|------------------------------------------|
A|------------------------------------------|
E|------------------------------------------|

E|-6-5-4-0-7-6-5-0--------------------------|
B|------------------------------------------|
G|------------------------------------------|
D|------------------------------------------|
A|------------------------------------------|
E|------------------------------------------|


[Parte 10)

E|-------5----------------------------------|
B|-8b10----8-7-5----------------------------|
G|---------------8-7-5---7-5b---------------|
D|---------------------7------7-------------|
A|------------------------------------------|
E|------------------------------------------|

E|-------5----------------------------------|
B|-8b10----8-5------------------------------|
G|-------------8-7-5---7-5b-----------------|
D|-------------------7------7-5-7~----------|
A|------------------------------------------|
E|------------------------------------------|

Composición de Ian Gillan / Ian Paice / Jon Lord / Ritchie Blackmore / Roger Glover
Colaboración y revisión:
  • Vinícius Dias
179 vistas
  • Simplificar cifrado
    • ½ Tono
    • A
    • Bb
    • B
    • C
    • Db
    • D
    • Eb
    • E
    • F
    • F#
    • G
    • Ab
  • Agregar a la lista

    0 comentarios

    Ver todos los comentarios

    ¿Lograste tocar?

    0 Tocaron 2 Aún no

    ¡Graba un video tocando Highway Star y envíanoslo!

    00:00 / 00:00
    Outros vídeos desta música
    Repetir Calidad Automático
    Outros vídeos desta música
    00:00 / 00:00
    Automático
    Capítulos
    • Abertura
    • Tocando o Solo
    • Equipamentos
    • Dicas Iniciais
    • Parte 1 - 100 BPM
    • Parte 2 - 100 BPM
    • Parte 3 - 100 BPM
    • Parte 4 - 100 BPM
    • Parte 5 - 100 BPM
    • Parte 6 - 100 BPM
    • Parte 7 - 100 BPM
    • Parte 8 - 100 BPM
    • Parte 9 - 100 BPM
    • Parte 10 - 100 BPM
    • Parte 1 - 140 BPM
    • Parte 2 - 140 BPM
    • Parte 3 - 140 BPM
    • Parte 4 - 140 BPM
    • Parte 5 - 140 BPM
    • Parte 6 - 140 BPM
    • Parte 7 - 140 BPM
    • Parte 8 - 140 BPM
    • Parte 9 - 140 BPM
    • Parte 10 - 140 BPM
    • Encerramento
    OK